Song name
# A B C D E F G H I J K L M N O P Q R S T U V W X Y Z

Emancipator - Wolf Drawn tab

Wolf Drawn Intro
Emancipator
Soon It Will Be Cold Enough
Tabbed by Saibe
ascootw (at) yahoo.com

Intro:
                             
E----------------------------------------------------------------|
B----------------------------------------------------------------|
G----11----7-----------------------11-----7--------------14--11--|
D----------------11-12----9\--------------------11-12------------|
A----------------------------------------------------------------|
E----------------------------------------------------------------|
                                                                        x2
E----------------------------------------------------------------|
B----------------------------------------------------------------|
G----11----7-----------------------11-----7-----------14-------14|
D----------------11-12----9\--------------------11h12----11h12---|
A----------------------------------------------------------------|
E----------------------------------------------------------------|

Tap to rate this tab
 
# A B C D E F G H I J K L M N O P Q R S T U V W X Y Z