Song name
# A B C D E F G H I J K L M N O P Q R S T U V W X Y Z

Emanon - Johnny On The Job tab

 johnny on the job intro by:Spencer & Jackson Kanenwisher and Ian Sutherland
 e|------------------------------------------------------------------------------|
 b|------------------------------------------------------------------------------|
 g|------------------------------------------------------------------------------|
 d|------------------------------------------------------------------------------|
 a|-----/-7777777-5555555333532222222--bass-plays-this-4times then---------------|
 e|------------------------------------------------------------------------------|

guitar chorus
 e|----------------------------------------------------------------------------|
 b|----------------------------------------------------------------------------|
 g|----------------------------------------------------------------------------|
 d|----------------------------------------------------------------------------|
 a|--77777777--1077777777--1277777777--1077777777------------------------------|
 e|----------------------------------------------------------------------------|

play 4 times then.....

 rythem guitar #1
 e|----------------------------------------------------------------------------|
 b|----------------------------------------------------------------------------|
 g|----------------------------------------------------------------------------|
 d|-----9-99999---7-77777---5-5-5-7-5-4444444----------------------------------|
 a|-----7-77777---5-55555---3-3-3-5-3-2222222----------------------------------|
 e|----------------------------------------------------------------------------|3 times

solo#1
|-----------------------------------------------------------| this solo should
|-7-10------------------------------------------------------| be played clean
|------7-9--------------------------------------------------| on the bridge
|----------7-9-9-9-9-9-9-7-9-7-9-7-9-7-9/\-9-9-9-9-9--------|      pickup. It should
|-----------------------------------------------------------| fit right with
|-----------------------------------------------------------| 3 of the bass
                                                               riffs.

|-------------------------------------------------------------|
|----------10-7-5-7-5-7-5-7----7-5-7--------------------------|
|-----9-7---------------------5-------------------------------|
|-9-7---------------------------------------------------------|
|-------------------------------------------------------------|
|-------------------------------------------------------------|

back to rythem guitar #1 and play 4 times while the bass is playing it's second solo.
play chorus twice then end with a high E power chord and let it ring.

thanks! if you have any questions just email me @ rocker_spence@hotmail.com
                                       Spencer Kanenwisher
Tap to rate this tab
# A B C D E F G H I J K L M N O P Q R S T U V W X Y Z