Guitaretab - guitar tabs
Song name
# A B C D E F G H I J K L M N O P Q R S T U V W X Y Z

Emanuel - Dislocated tab

-----------------------------------------------------------------
Dislocated Solo - Emanuel
-----------------------------------------------------------------
Tabbed by: Brendan
Email: flyingcows1001@hotmail.com
Tuning:  Step Down

I saw that nobody had done any Emanuel solos so I thought I would post one, maybe 
other people to do more. If you have any comments or corrections e-mail or leave a PM. Enjoy. :]

Eb|---------------------------------------------------------------|
Bb|---------------------------------------------------------------|
Gb|-/14-12------14-12-----/17-16-14-14-12h14p12-----/14-12--------|
Db|--------14~--------14~-----------------------14~--------14-----|
Ab|---------------------------------------------------------------|
Eb|---------------------------------------------------------------|
[ Tab from: http://www.guitaretab.com/e/emanuel/154232.html ]
Eb|---------------------------------------------------------------|
Bb|---------------------------------------------------------------|
Gb|-/21-19~/14-14-12-12-------14-14-12h14p12----17-16~------------|
Db|---------------------14-14----------------14-------------------|
Ab|---------------------------------------------------------------|
Eb|---------------------------------------------------------------|

Eb|---------------------------------------------------------------|
Bb|---------------------------------------------------------------|
Gb|-16-16-16-16-16-16-16-16-/-21-21-21-21-21-21-21-21-------------|
Db|-17-17-17-17-17-17-17-17-/-22-22-22-22-22-22-22-22-------------|
Ab|---------------------------------------------------------------|
Eb|---------------------------------------------------------------|

*not too sure about this last part, but the rest is dead on

| /  slide up
| \  slide down
| h  hammer-on
| p  pull-off
| ~  vibrato
| +  harmonic
| x  Mute note
Related for Dislocated tab