Song name
# A B C D E F G H I J K L M N O P Q R S T U V W X Y Z

Emanuel - The New Violence tab

-------------------------------------------------------------------------------
			     The New Violence - Emanuel
-------------------------------------------------------------------------------
Tabbed by: Alex Barrera
Myspace: http://www.myspace.com/token_brown_kid

Emanuel’s Best Song.

Tuning: Drop D, Half Step Down


Verse:


[Feedback]


“Live From The Vacant Lot!”
eb|----------------------------------------|
Bb|----------------------------------------|
Gb|--------8888888--------8-8-5-7-5/7------|
Db|-777-55-xxxxxxx-777-55-x-x-x-x-x/x------|
Ab|-777-55-6666666-777-55-6-6-3-5-3/5------|
Db|-777-55---------777-55------------------|

eb|---------------------------------------|
Bb|---------------------------------------|
Gb|--------8888888-5-7777777-5-7777777----|
Db|-777-55-xxxxxxx-x-xxxxxxx-x-xxxxxxx----|
Ab|-777-55-6666666-3-5555555-3-5555555----|
Db|-777-55--------------------------------|

“This Is The New Violence!”
eb|----------------------------------------|
Bb|----------------------------------------|
Gb|--------8888888--------8-8-5-7-5/7------|
Db|-777-55-xxxxxxx-777-55-x-x-x-x-x/x------|
Ab|-777-55-6666666-777-55-6-6-3-5-3/5------|
Db|-777-55---------777-55------------------|

eb|-----------------------XX--------XX---|
Bb|-----------------------XX--------XX---|
Gb|--------8888888-5-7777-XX-5-7777-XX---|
Db|-777-55-xxxxxxx-x-xxxx-XX-x-xxxx-XX---|
Ab|-777-55-6666666-3-5555-XX-3-5555-XX---|
Db|-777-55----------------XX--------XX---|

“Bang Bang Mother****** YEAH!”

eb|---------------------XX--|
Bb|---------------------XX--|
Gb|---------------------XX--|
Db|-5-77-5-7\\\---------XX--|
Ab|-5-77-5-7\\\---------XX--|
Db|-5-77-5-7\\\-*Slide*-XX--|


eb|-----------------------------------|
Bb|-----------------------------------|
Gb|---------------------555555/77-----|
Db|-5-77-5-7\\\---------xxxxxx/xx-----|
Ab|-5-77-5-7\\\---------333333/55-----|
Db|-5-77-5-7\\\-*Slide*---------------|


Chorus:


“So While You Sleep At Night...”

Guitar 1:
eb|--------------------X---X---X---X---X-------|
Bb|--------------------X---X---X---X---X-------|
Gb|--------------------X---X---X---X---X-------|
Db|-7777-7-5555-5-3333-X-3-X-3-X-3-X-3-X-3-55--|
Ab|-7777-7-5555-5-3333-X-3-X-3-X-3-X-3-X-3-55--|
Db|-7777-7-5555-5-3333-X-3-X-3-X-3-X-3-X-3-55--|

Guitar 2:

eb|---------------------------------------------------------------------|
Bb|---------------------------------------------------------------------|
Gb|-----5~-----5-7-5-----5~--------5------7^-5-------7^-8-7-5-7-5-------|
Db|-5-7----5-7-------5-7-------------7-5-7-----7-5-7--------------7-5---|
Ab|---------------------------------------------------------------------|
Db|---------------------------------------------------------------------|

Guitar 2 End Chorus:

Improvise and mess around with this structure:

eb|-------------------------|
Bb|-------------------------|
Gb|-8-7-7h8p7-5-7-5-----5---|
Db|-----------------7-5-----|
Ab--------------------------|
Db|-------------------------|

Verse 2

Mute Notes With Fretting Hand At Around High to Mid Neck (4th, 5th, 6th, 7th frets) To 
this scratching sound:

“Were Gonna Find You…”

eb|-XXXXXX--XX--|
Bb|-XXXXXX--XX--|
Gb|-XXXXXX--XX--|
Db|-XXXXXX--XX--|
Ab|-XXXXXX--XX--|
Db|-XXXXXX--XX--|


[Feedback]


eb|----------------------------------------|
Bb|----------------------------------------|
Gb|----------8888888----------8-8-5-7-5/7--|
Db|-777-5555-xxxxxxx-777-5555-x-x-x-x-x/x--|
Ab|-777-5555-6666666-777-5555-6-6-3-5-3/5--|
Db|-777-5555---------777-5555--------------|
    *** **** * * * * *** ****


eb|-------------------------------------|
Bb|-------------------------------------|
Gb|----------8888888-5-7777777-5-77-7\--|
Db|-777-5555-xxxxxxx-x-xxxxxxx-x-xx-x\--|
Ab|-777-5555-6666666-3-5555555-3-55-5\--|
Db|-777-5555----------------------------|
    *** **** * * * *


“What Is There Left To Lose?”
eb|----------------------------------------|
Bb|----------------------------------------|
Gb|--------8888888--------8-8-5-7-5/7------|
Db|-777-55-xxxxxxx-777-55-x-x-x-x-x/x------|
Ab|-777-55-6666666-777-55-6-6-3-5-3/5------|
Db|-777-55---------777-55------------------|

eb|---------------------------------------|
Bb|---------------------------------------|
Gb|--------8888888-5-7777777-5-7777777----|
Db|-777-55-xxxxxxx-x-xxxxxxx-x-xxxxxxx----|
Ab|-777-55-6666666-3-5555555-3-5555555----|
Db|-777-55--------------------------------|

“Bang Bang Mother****** YEAH!”

eb|---------------------XX--|
Bb|---------------------XX--|
Gb|---------------------XX--|
Db|-5-77-5-7\\\---------XX--|
Ab|-5-77-5-7\\\---------XX--|
Db|-5-77-5-7\\\-*Slide*-XX--|


eb|-----------------------------------|
Bb|-----------------------------------|
Gb|---------------------555555/77-----|
Db|-5-77-5-7\\\---------xxxxxx/xx-----|
Ab|-5-77-5-7\\\---------333333/55-----|
Db|-5-77-5-7\\\-*Slide*---------------|

Chorus 2:

“So While You Sleep At Night…”
Guitar 1:
eb|--------------------X---X---X---X---X-------|
Bb|--------------------X---X---X---X---X-------|
Gb|--------------------X---X---X---X---X-------|
Db|-7777-7-5555-5-3333-X-3-X-3-X-3-X-3-X-3-55--|
Ab|-7777-7-5555-5-3333-X-3-X-3-X-3-X-3-X-3-55--|
Db|-7777-7-5555-5-3333-X-3-X-3-X-3-X-3-X-3-55--|

Guitar 2:

eb|---------------------------------------------------------------------|
Bb|---------------------------------------------------------------------|
Gb|-----5~-----5-7-5-----5~--------5------7^-5-------7^-8-7-5-7-5-------|
Db|-5-7----5-7-------5-7-------------7-5-7-----7-5-7--------------7-5---|
Ab|---------------------------------------------------------------------|
Db|---------------------------------------------------------------------|

Guitar 2 End Chorus:

Again, Improvise With These Notes:

eb|-------------------------|
Bb|-------------------------|
Gb|-8-7-7h8p7-5-7-5-----5---|
Db|-----------------7-5-----|
Ab--------------------------|
Db|-------------------------|

Interlude:

“WE…WANT…BLOOD!”

eb|---------------------------------------------|
Bb----------------------------------------------|
Gb|------8888-------7777------5555---7-8---5-7--|
Db|-0000-xxxx-0000--xxxx-0000-xxxx---x-x---x-x--|
Ab|-0000-6666-0000--5555-0000-3333---5-6---3-5--|
Db|-0000------0000-------0000------0-----0------|

eb|---------------------------------------------|
Bb----------------------------------------------|
Gb|------8888-------7777------5555---7-8---5-7--|
Db|-0000-xxxx-0000--xxxx-0000-xxxx---x-x---x-x--|
Ab|-0000-6666-0000--5555-0000-3333---5-6---3-5--|
Db|-0000------0000-------0000------0-----0------|

eb|---------------------------------------------|
Bb----------------------------------------------|
Gb|------8888-------7777------5555---7-8---5-7--|
Db|-0000-xxxx-0000--xxxx-0000-xxxx---x-x---x-x--|
Ab|-0000-6666-0000--5555-0000-3333---5-6---3-5--|
Db|-0000------0000-------0000------0-----0------|

eb|----------------------------------------|
Bb-----------------------------------------|
Gb|---7-8---5-7---7-6---5-7---7-8---5-7----|
Db|---x-x---x-x---x-x---x-x---x-x---x-x-0--|
Ab|---5-6---3-5---5-6---3-5---5-6---3-5-0--|
Db|-0-----0-----0-----0-----0-----0-----0--|


Chorus 3

“So While You Sleep At Night…”
Guitar 1:
eb|--------------------X---X---X---X---X-------|
Bb|--------------------X---X---X---X---X-------|
Gb|--------------------X---X---X---X---X-------|
Db|-7777-7-5555-5-3333-X-3-X-3-X-3-X-3-X-3-55--|
Ab|-7777-7-5555-5-3333-X-3-X-3-X-3-X-3-X-3-55--|
Db|-7777-7-5555-5-3333-X-3-X-3-X-3-X-3-X-3-55--|

Guitar 2:

eb|---------------------------------------------------------------------|
Bb|---------------------------------------------------------------------|
Gb|-----5~-----5-7-5-----5~--------5------7^-5-------7^-8-7-5-7-5-------|
Db|-5-7----5-7-------5-7-------------7-5-7-----7-5-7--------------7-5---|
Ab|---------------------------------------------------------------------|
Db|---------------------------------------------------------------------|

Guitar 2 End Chorus:

Again, Improvise With These Notes:

eb|-------------------------|
Bb|-------------------------|
Gb|-8-7-7h8p7-5-7-5-----5---|
Db|-----------------7-5-----|
Ab--------------------------|
Db|-------------------------|

eb|--------------------X---X---X---X---X-------|
Bb|--------------------X---X---X---X---X-------|
Gb|--------------------X---X---X---X---X-------|
Db|-7777-7-5555-5-3333-X-3-X-3-X-3-X-3-X-3-55--|
Ab|-7777-7-5555-5-3333-X-3-X-3-X-3-X-3-X-3-55--|
Db|-7777-7-5555-5-3333-X-3-X-3-X-3-X-3-X-3-55--|

End On:

Eb|------|
Bb|------|
Gb|------|
Db|-7\\--|
Ab|-7\\--|
Db|-7\\--|


Enjoy.


|  * Palm Mute
| /  slide up
| \  slide down
| h  hammer-on
| p  pull-off
| ~  vibrato
| x  Mute note
===============================================================================
Tap to rate this tab
 
# A B C D E F G H I J K L M N O P Q R S T U V W X Y Z