Song name
# A B C D E F G H I J K L M N O P Q R S T U V W X Y Z

Emanuel - The Willing tab

Hey again emanuel fans, im bk and proud to say so. yes, yes, i am the 12 year old boy
with another resion of an emanuel song. i luv to play this song, check it out! This is
the best tab I've done so hope its good !

Band: Emanuel
Song: The Willing
Album: Soundtrack To A Headrush
Tunning: Guitar 1: Standard Guitar 2: Dropped D

Intro:
Guitar 1 and Guitar 2:
|-------------------------------|
|-------------------------------|
|-------------------------------|
|---4---5---4---5-5-5-5---------|
|---4---5---4---5-5-5-5---------|
|---4---5---4---5-5-5-5---------|

Verse:
Guitar 1: Repeat 8 Times
|-----------------------|
|---6-6-6-6-6-6-6s4-4---|
|-----------------------|
|-----------------------|
|-----------------------|
|-----------------------|

Guitar 2: Repeat 8 Times
|-------------------------------------------|
|-------------------------------------------|
|-------------------------------------------|
|---4-4-4-4-4-4---5-5---2-2-2-2-2-2---5-5---|
|---4-4-4-4-4-4---5-5---2-2-2-2-2-2---5-5---|
|---4-4-4-4-4-4---5-5---2-2-2-2-2-2---5-5---|

Pre-Chorus:
Guitar 1: Repeat 2 Times
|-------------------------------------------|
|-------------------------------------------|
|-------------------------------------------|
|---4-4-4-4-4-4---5-5---2-2-2-2-2-2---5-5---|
|---4-4-4-4-4-4---5-5---2-2-2-2-2-2---5-5---|
|---4-4-4-4-4-4---5-5---2-2-2-2-2-2---5-5---|

|---------------------------------------------|
|---------------------------------------------|
|---------------------------------------------|
|---4-4-4-4-4-4---5-5---2-2-2-2-2-2---11-11---|
|---4-4-4-4-4-4---5-5---2-2-2-2-2-2---11-11---|
|---4-4-4-4-4-4---5-5---2-2-2-2-2-2---11-11---|

Guitar 2: Repeat 4
|-------------------------------------------|
|-------------------------------------------|
|-------------------------------------------|
|---4-4-4-4-4-4---5-5---2-2-2-2-2-2---5-5---|
|---4-4-4-4-4-4---5-5---2-2-2-2-2-2---5-5---|
|---4-4-4-4-4-4---5-5---2-2-2-2-2-2---5-5---|

Chorus:
Guitar 1: Repeat 8 Times (Not to sure about this)
|--------------------------------|
|---8-------8---------8----------|
|-----------------------8-8-10---|
|-----10-10---10-10--------------|
|--------------------------------|
|--------------------------------|

Guitar 2: Repeat 2 Times
|--------------------------------------------|
|--------------------------------------------|
|--------------------------------------------|
|---0-11-11-11---7-7-7-7---4-4-4-4-4-4-4-4---|
|---0-11-11-11---7-7-7-7---4-4-4-4-4-4-4-4---|
|---0-11-11-11---7-7-7-7---4-4-4-4-4-4-4-4---|

|----------------------------------------------|
|----------------------------------------------|
|----------------------------------------------|
|---0-11-11-11---7-7-7-7---4-4-4-2---4-4-4-2---|
|---0-11-11-11---7-7-7-7---4-4-4-2---4-4-4-2---|
|---0-11-11-11---7-7-7-7---4-4-4-2---4-4-4-2---|

Fill-In:
Guitar 1: Repeat 2 Times
|-----------------------|
|---6-6-6-6-6-6-6s4-4---|
|-----------------------|
|-----------------------|
|-----------------------|
|-----------------------|

Guitar 2: Repeat 2 Times
|-------------------------------------------|
|-------------------------------------------|
|-------------------------------------------|
|---4-4-4-4-4-4---5-5---2-2-2-2-2-2---5-5---|
|---4-4-4-4-4-4---5-5---2-2-2-2-2-2---5-5---|
|---4-4-4-4-4-4---5-5---2-2-2-2-2-2---5-5---|

Verse:
Guitar 1: Repeat 8 Times
|-----------------------|
|---6-6-6-6-6-6-6s4-4---|
|-----------------------|
|-----------------------|
|-----------------------|
|-----------------------|

Guitar 2: Repeat 8 Times
|-------------------------------------------|
|-------------------------------------------|
|-------------------------------------------|
|---4-4-4-4-4-4---5-5---2-2-2-2-2-2---5-5---|
|---4-4-4-4-4-4---5-5---2-2-2-2-2-2---5-5---|
|---4-4-4-4-4-4---5-5---2-2-2-2-2-2---5-5---|

Pre-Chorus:
Guitar 1: Repeat 2 Times
|-------------------------------------------|
|-------------------------------------------|
|-------------------------------------------|
|---4-4-4-4-4-4---5-5---2-2-2-2-2-2---5-5---|
|---4-4-4-4-4-4---5-5---2-2-2-2-2-2---5-5---|
|---4-4-4-4-4-4---5-5---2-2-2-2-2-2---5-5---|

|---------------------------------------------|
|---------------------------------------------|
|---------------------------------------------|
|---4-4-4-4-4-4---5-5---2-2-2-2-2-2---11-11---|
|---4-4-4-4-4-4---5-5---2-2-2-2-2-2---11-11---|
|---4-4-4-4-4-4---5-5---2-2-2-2-2-2---11-11---|

Guitar 2: Repeat 4
|-------------------------------------------|
|-------------------------------------------|
|-------------------------------------------|
|---4-4-4-4-4-4---5-5---2-2-2-2-2-2---5-5---|
|---4-4-4-4-4-4---5-5---2-2-2-2-2-2---5-5---|
|---4-4-4-4-4-4---5-5---2-2-2-2-2-2---5-5---|

Chorus:
Guitar 1: Repeat 8 Times (Not to sure about this)
|--------------------------------|
|---8-------8---------8----------|
|-----------------------8-8-10---|
|-----10-10---10-10--------------|
|--------------------------------|
|--------------------------------|

Guitar 2: Repeat 2 Times
|--------------------------------------------|
|--------------------------------------------|
|--------------------------------------------|
|---0-11-11-11---7-7-7-7---4-4-4-4-4-4-4-4---|
|---0-11-11-11---7-7-7-7---4-4-4-4-4-4-4-4---|
|---0-11-11-11---7-7-7-7---4-4-4-4-4-4-4-4---|

|----------------------------------------------|
|----------------------------------------------|
|----------------------------------------------|
|---0-11-11-11---7-7-7-7---4-4-4-2---4-4-4-2---|
|---0-11-11-11---7-7-7-7---4-4-4-2---4-4-4-2---|
|---0-11-11-11---7-7-7-7---4-4-4-2---4-4-4-2---|

Interlude:
Guitar 1: Repeat 4 Times
|--------------------|
|--------------------|
|--------------------|
|---11---9---7---4---|
|---11---9---7---4---|
|---11---9---7---4---|

Guitar 2: Repeat 4 Times
|-------------------------------|
|-------------------------------|
|-------------------------------|
|---7-7-7-7---5---2-2-2-2---4---|
|---7-7-7-7---5---2-2-2-2---4---|
|---7-7-7-7---5---2-2-2-2---4---|

Post Interlude:
Guitar 1 and 2: Repeat 2 Times
|----------------|
|----------------|
|----------------|
|---11---7---4---|
|---11---7---4---|
|---11---7---4---|

Chorus:
Guitar 1: Repeat 8 Times (Not to sure about this)
|--------------------------------|
|---8-------8---------8----------|
|-----------------------8-8-10---|
|-----10-10---10-10--------------|
|--------------------------------|
|--------------------------------|

Guitar 2: Repeat 2 Times
|--------------------------------------------|
|--------------------------------------------|
|--------------------------------------------|
|---0-11-11-11---7-7-7-7---4-4-4-4-4-4-4-4---|
|---0-11-11-11---7-7-7-7---4-4-4-4-4-4-4-4---|
|---0-11-11-11---7-7-7-7---4-4-4-4-4-4-4-4---|

|----------------------------------------------|
|----------------------------------------------|
|----------------------------------------------|
|---0-11-11-11---7-7-7-7---4-4-4-2---4-4-4-2---|
|---0-11-11-11---7-7-7-7---4-4-4-2---4-4-4-2---|
|---0-11-11-11---7-7-7-7---4-4-4-2---4-4-4-2---|

Outro:
Guitar 1: Repeat 2 Times
|-------------------------------------------|
|-------------------------------------------|
|-------------------------------------------|
|---4-4-4-4-4-4---5-5---2-2-2-2-2-2---5-5---|
|---4-4-4-4-4-4---5-5---2-2-2-2-2-2---5-5---|
|---4-4-4-4-4-4---5-5---2-2-2-2-2-2---5-5---|

|---------------------------------------------|
|---------------------------------------------|
|---------------------------------------------|
|---4-4-4-4-4-4---5-5---2-2-2-2-2-2---11-11---|
|---4-4-4-4-4-4---5-5---2-2-2-2-2-2---11-11---|
|---4-4-4-4-4-4---5-5---2-2-2-2-2-2---11-11---|

Guitar 2: Repeat 4 Times
|-------------------------------------------|
|-------------------------------------------|
|-------------------------------------------|
|---4-4-4-4-4-4---5-5---2-2-2-2-2-2---5-5---|
|---4-4-4-4-4-4---5-5---2-2-2-2-2-2---5-5---|
|---4-4-4-4-4-4---5-5---2-2-2-2-2-2---5-5---|

You can find out the rythm -----------xxxxx
Tap to rate this tab
# A B C D E F G H I J K L M N O P Q R S T U V W X Y Z