Song name
# A B C D E F G H I J K L M N O P Q R S T U V W X Y Z

Emanuel - Xerocide tab

Band - Emanuel
Song - Xerocide
Album - Soundtrack to a Headrush
Tuning - Eb Ab Db Gb Bb Eb

Amazing song of Emanuels Debut CD "Soundtrack to a Headrush"


Intro

"Brother we stick together..."

eb:-------------------------------:
bb:-------------------------------:
gb:-------7-7-7-4-4-4-4-4-4-------:
db:-4-4-4-7-7-7-4-4-4-4-4-4-2-2-2-:
ab:-4-4-4-5-5-5-2-2-2-2-2-2-2-2-2-:
Eb:-2-2-2-------------------0-0-0-:


Verse Part 1

"Empty Heads Fill Crowded Rooms..."

eb:-------------------------------------------:
bb:-------------------------------------------:
gb:-----------7-7-7-7-7-4-4-4-4-4-4-4-4-------:
db:-4-2-4-4-4-7-7-7-7-7-4-4-4-4-4-4-4-4-2-2-2-:
ab:-4-2-4-4-4-5-5-5-5-5-2-2-2-2-2-2-2-2-2-2-2-:
Eb:-2-0-2-2-2---------------------------0-0-0-:

Verse Part 2

"I Feel These Tears..."

eb:------------------------------------------------------------:
bb:------------------------------------------------------------:
gb:---------7-------4---------------------7------4------6------:
db:-4-------7--x8---4--x16---2-2-2-4------7--x8--4--x8--6--x8--:
ab:-4-x-8---5-------2--------2-2-2-4--x8--5------2------4------:
Eb:-2------------------------0-0-0-2---------------------------:

PreChorus

"Meet by the backdoor..."

eb:---------------------------------------------------------------:
bb:---------------------------------------------------------------:
gb:-7-7-7-7-9-9-9-9-----------------------------------------7-7-7-:
db:-7-7-7-7-9-9-9-9-4-2-4-4-2-4-2-2-2-x3 then---4-4-4-2-2-2-7-7-7-:
ab:-5-5-5-5-7-7-7-7-4-2-4-4-2-4-2-2-2-----------4-4-4-2-2-2-5-5-5-:
Eb:-----------------2-0-2-2-0-2-0-0-0-----------2-2-2-0-0-0-------:

Last Chords Before Chorus

"Xerocide...."

eb:----------------------------:
bb:----------------------------:
gb:-7-7-7-7-7-7-9-9-9-10-10-10-:
db:-7-7-7-7-7-7-9-9-9-10-10-10-:
ab:-5-5-5-5-5-5-7-7-7--8--8--8-:
Eb:----------------------------:

Chorus

eb:----------------------------------------------------------------------:
bb:----------------------------------------------------------------------:
gb:-----6-6-4-4-------------------------6-6-4-4------------------4-4-6-6-:
db:-----4-4-2-2-5-5-4-4-2-2-4-2---------4-4-2-2-5-5-4-4-5-5-6-6--2-2-4-4-:
ab:-4-4---------3-3-2-2-0-0-2-0-4-2-4-4---------3-3-2-2-3-3-4-4----------:
Eb:-2-2-------------------------2-0-2-2----------------------------------:

Back To Verse Again

Work out the structure for yourself...
Any Suggestions...Doms_BeerCo@Hotmail.com
Tap to rate this tab
# A B C D E F G H I J K L M N O P Q R S T U V W X Y Z