Guitaretab - guitar tabs
Song name
# A B C D E F G H I J K L M N O P Q R S T U V W X Y Z

Emanuel - Breathe Underwater tab

Hey this is my first tab i think its about 95% accurate but email me (ice_wolf_1@hotmail.com)
with feedback or corrections... ENJOY!

p= Pull off
h=Hammer on
s= Slide
PM= Palm Mute

Most of it is the lead part as it hasnt been tabbed yet.
This is the lead bit at the beginning of the song
INTRO
E| --------------------------------------------------------------------------------|
B|--------------------------------5p4 ---------------------------------------------|
G|-------4---4--------------4---------6-4------3h4-------------3h4--6-4-3----------|
D|--4h6----6---6-4h6---4h6---6---------------4----4---4-----4-------------4--------|
A|------------------------------------------6--------6-----6-----------------------|
E| --------------------------------------------------------------------------------|


E| --------------------------------------------------------------------------------|
B|------4--4-----------------------------------------------------------------------|
G|----4--4--4---4------3h4-------------3h4--------------3h4--6-4-3-----------------|
D|--6---------6------4-----4---4-----4-----4---4------4-------------4--6-----------|
A|------------------6--------6------6--------6------6------------------------------|
E| --------------------------------------------------------------------------------|

VERSE  listen to it really carefully to get the rhythm
    'Look in the mirror...'
E|--------------------------------------------------------------------------------|
B|---------7-4--------4h5p4---------4h5p4--------------4h5p4----------------------|
G|----3s4--------------------6-------------6-4-6--------------6-4-----------------|
D|--6---------------------------4-4------------4--4-4--------------4-------   x 2-|
A|--------------------------------------------------------------------------------|
E|--------------------------------------------------------------------------------|
                                                          PMPM                        PMPM
Then at 'I came to and find myself behind the wheel..' play this :
[ Tab from: http://www.guitaretab.com/e/emanuel/64048.html ]
E|-----------------------------------------------------------------|
B|---------0-0-0-0-0-0-0-0-0-0----7-7-7-----5----------------------|
G|-----3h4---- 4-4-3-3-6-6-4-4---8-8-8-8---6--6-6-6s8s6------------|
D|--6--------------------------------------------------------------|
A|-----------------------------------------------------------------|
E|-----------------------------------------------------------------|

E|-------------------------------------------------------------------|
B|---------0-0-0-0-0-0-0-0-0-0----7-7-7------------------------------|
G|-----3h4---- 4-4-3-3-6-6-4-4---8-8-8-8----7b8-8-8-8-8-8-8-8--------|
D|--6----------------------------------------------------------------|
A|-------------------------------------------------------------------|
E|-------------------------------------------------------------------|

CHORUS 1
   ' My friends can't breathe underwater...'
E|------------------------------------------------------|
B|------------------------------------------------------|
G|--------------------------------- 6------x--4---------|
D|--6------ 8------9-------4------- 6--X4--x--4--X3-----|    X2
A|--6--X6-- 8-X2---9-X8--- 4--X8--- 4------x--2---------|
E|--4-------6------7-------2------- --------------------|

VERSE


CHORUS 2

As well as the chords there is another guitar playing this on top of it:


E|---------------------------------------------------------|
B|--999----------------------777---------------------------|
G|--xxx--88888--666--88888--xxx-- 88888--666--44444--------|
D|--666--xxxxx--xxx--xxxxx--444-- xxxxx-- xxx--xxxxx-------|   X2
A|-------66666--444--66666--------66666--444--22222--------|
E|---------------------------------------------------------|

BRIDGE
                             'They only stab me in the back now anyway...'
E|-----------------------------------------------------|
B|-----------------------------------------------------|
G|---------6-------------------------------------------|
D|--2------6--X8--- 4s66-4s66-4s66-4s66-4s6s4----------|   X2
A|--2--X8--4------- 4s66-4s66-4s66-4s66-4s6s4----------|
E|--0---------------2s44-2s44-2s44-2s44-2s4s2----------|

E|-------------------------------|
B|-------------------------------|
G|---------xx6xx6xxxxxxx---------|
D|--2------xx6xx6xxxxxxx---------|
A|--2--x8--xx4xx4xxxxxxx---------|
E|--0----------------------------|

CHORUS


OUTRO


E|--------------------------------------|
B|--------------------------------------|
G|--------------------------------------|
D|---4s66-4s66-4s66-4s66-4s6s4----------|   X4
A|---4s66-4s66-4s66-4s66-4s6s4----------|
E|---2s44-2s44-2s44-2s44-2s4s2----------|


Phew

look up the lyrics yourself  :-P
Related for Breathe Underwater tab
Advertisement will be closed in 10 seconds