Song name
# A B C D E F G H I J K L M N O P Q R S T U V W X Y Z

Emanuel - Sountrack To A Headrush tab

Band: Emanuel
Song: Soundtrack To A HeadRush
Album: Soundtrack To A Headrush
Tuning: Standard

Hey Guys, I've been trying to get some Emanuel TABs to play on my electric, but I can
never find the song The Hotline from my favourite band or Soundtrack To A Headrush. I
Found out this for soundtrack to a headrush and I am still trying to work out the rest.
I have verse 1 but i can't be asked with finding the rest so i put this TAB as intro.
Im 12 and making a band called The Oracles. Look out for us in 5 years time as a famous
Punk/Screamo band, hehe =)

E|---------------------------------|
B|---------------------------------|
G|---------------------------------|
D|---1--3--x-x-x--x-x-x--x-x-6-6---| x2
A|---1--3--x-x-x--x-x-x--x-x-6-6---| 
E|---1--1--x-x-x--x-x-x--x-x-4-4---|

E|------------------------|
B|------------------------|
G|------------------------|
D|---1-3--1-3--1-3--1-6---| 
A|---1-3--1-3--1-3--1-6---| 
E|---1-1--1-1--1-1--1-4---| 

E|------------------------|
B|------------------------|
G|------------------------|
D|---1-3--1-3--1-3--1-2---| 
A|---1-3--1-3--1-3--1-2---| 
E|---1-1--1-1--1-1--1-0---|
Tap to rate this tab
# A B C D E F G H I J K L M N O P Q R S T U V W X Y Z