Song name
# A B C D E F G H I J K L M N O P Q R S T U V W X Y Z

Emanuel - Ye Ye Ye tab

this is the leading tab for Emanuel's Ye Ye Ye

This is how it goes

|--------------------------------7--7--5------|
|---5--7--5--8--7--5----5--7--5-----------8---|
|---------------------------------------------|
|---------------------------------------------|
|---------------------------------------------|
|---------------------------------------------|

|---------------------------------------------|
|---5--7--5--8--7--5----5--5--5-----------5---|
|--------------------------------7--7--7------|
|---------------------------------------------|
|---------------------------------------------|
|---------------------------------------------|


thats about it. enjoy !

Danny
Tap to rate this tab
# A B C D E F G H I J K L M N O P Q R S T U V W X Y Z