Guitaretab - guitar tabs
Song name
# A B C D E F G H I J K L M N O P Q R S T U V W X Y Z
Home / E / Emarosa / Utah tab

Emarosa - Utah tab

Title: Utah
Artist: Emarosa
Tabbed by: June Sayama
Tuning: D A D G B E

Intro:
E|----|
B|----|
G|----|
D|-0~-|
A|-0~-|
D|-0~-|
   .   
then
E|------------------------------------------|
B|---------------------------------10-10-10-|
G|---------------------------------13-13-13-|
D|-000-000-00-000-0-0-000-000-00~-----------|
A|-000-000-00-000-0-0-000-000-00~-----------|
D|-000-000-00-000-0-0-000-000-00~-----------|
   ..  ..  .  ..      ..  ..

E|------------------------------------------------|
B|------------------------------10-10-10-10-10-10-|
G|------------------------------13-13-13-13-13-13-|
D|-000-000-00-000-0-0-000-000-0-------------------|
A|-000-000-00-000-0-0-000-000-0-------------------|
D|-000-000-00-000-0-0-000-000-0-------------------|
   ..  ..  .  ..      ..  ..

E|-----------------------------|
B|-----------------------------|
G|-----------------------------|
D|-0003~-0002~-0003~-075-087~\-| do 2 times
A|-000---000---000-------------|
D|-000---000---000-------------|
   ...   ...   ...

E|------------------|
B|------------------|
G|------------------|
D|-000-0-0-0-0-0-0~-| do 4 time
A|-000-0-0-0-0-0-0~-|
D|-000-0-0-0-0-0-0~-|
   ... . . . . . .

Then
Guitar 2
E|-----------------------------|
B|-----------------------------|
G|-----------------------------|
D|-----------------------------|
A|----5~-1~-8~-12~-5~-1~-8~-3~-|
D|-/\--------------------------|

guitar1 4 times:
E|---------------|
B|---------------|
G|---------------|
D|-0-0-0-0-0-0-0-|
A|-0-0-0-0-0-0-0-|
D|-0-0-0-0-0-0-0-|
   . . . . . . .

Intro to verse:
E|----------------|
B|----------------|
G|-14--15--17--12-|
D|-xx--xx--xx--xx-|
A|-12--13--15--10-|
D|----------------|
8 strums each

E|---------------------------xx---------------|
B|---------------------------xx-----------(5)-|
G|---------------------------xx-----------(5)-| do 2 times
D|-00-0-00--00-0-00~/88-8-88-xx-99-9-99~------|
A|-00-0-00--00-0-00~/88-8-88-xx-99-9-99~------|
D|-00-0-00--00-0-00~/88-8-88-xx-99-9-99~------|
        .        .       .          .

E|--------------------------------------|
B|--------------------------------------|
G|-77777777/14141414\77777777/1414\1212-|
D|-xxxxxxxxxxxxxxxxxxxxxxxxxxxxxxxxxxxx-|
A|-55555555/12121212\55555555/1212\1010-|
D|--------------------------------------|

E|-------------------------------------|
B|-----------(tens, not one zero)------|
G|----33333333/10101010\33333333/10\99-|
D|-00-xxxxxxxxxxxxxxxxxxxxxxxxxxxxxxxx-|
A|-00-11111111/88888888\11111111/88\77-|
D|-00----------------------------------|
   ..
Do the whole thing twice
Then

Guitar 2
E|--------------------------|
B|--------------------------|
G|--------------------------|
D|-00230-00230-00230-5-3-2~-| do 2 times
A|--------------------------|
D|--------------------------|

Guitar 1 (im not sure but thatís what I hear, 
          listen to the song carefully and
          youíll know what I mean)
[ Tab from: http://www.guitaretab.com/e/emarosa/100577.html ]
E|---------|
B|---------|
G|---------|
D|-0-0-0-0-| do until guitar 2 
A|-0-0-0-0-| finishes the riff
D|-0-0-0-0-|


E|-------------------------------------|
B|-------------------------------------|
G|-------------------------------------|
D|-0---0---0---3-2-0---0---0---333-222-|
A|-0-5-0-5-0-5-3-2-0-5-0-5-0-5-333-222-|
D|-0---0---0---3-2-0---0---0---333-222-|
                              ... ...

E|-----------------------------|
B|-----------------------------|
G|-----------------------------|
D|-0003~-0002~-0003~-075-087~\-| do 2 times
A|-000---000---000-------------|
D|-000---000---000-------------|
   ...   ...   ...
then
E|----|
B|----|
G|----|
D|-0~-|
A|-0~-|
D|-0~-|
   .

E|-----------------------------------------------|
B|-----------------------------------------------|
G|-14-/12-99/12-14-15-14-14-17-12-99/12-17-19-17-|
D|-xx--xx-xx-xx-xx-xx-xx-xx-xx-xx-xx-xx-xx-xx-xx-|
A|-12-/10-77/10-12-13-12-12-15-10-77/10-15-17-15-|
D|-----------------------------------------------|
Just strum and get the timing ^^

Then
E|-----------------------------------|
B|-----------------------------------|
G|----7-9-10-9-7-9----3-3-10-12-10-9-|
D|-00-0-0-0--0-0-0-00-0-0-0--0--0--0-|
A|-00-5-7-8--7-5-7-00-0-0-0--0--0--0-|
D|-00-0-0-0--0-0-0-00-0-0-0--0--0--0-|
   ..              ..
E|-------------------------------|
B|-------------------------------|
G|----7-9-10-9-7-9----3-3-10-12~-|
D|-00-0-0-0--0-0-0-00-0-0-0--0-~-|
A|-00-5-7-8--7-5-7-00-0-0-0--0-~-|
D|-00-0-0-0--0-0-0-00-0-0-0--0-~-|

E|---------------------------------|
B|-10--------------8---------------|
G|---7-9-7-10-7-9-7-7-9-7-10-7-9-7-|
D|---------------------------------| do 4 times
A|---------------------------------|
D|---------------------------------|

E|-------------------------------|
B|-------8~-10~-11~-10~----8~----|
G|-9/10~----------------------9~-|
D|-------------------------------|
A|-------------------------------|
D|-------------------------------|

E|---------------------------------|
B|-10--------------8---------------|
G|---7-9-7-10-7-9-7-7-9-7-10-7-9-7-|
D|---------------------------------| do 3 times
A|---------------------------------|
D|---------------------------------|

E|------------------------------------|
B|-10---------------------------------|
G|---7-9-7-10-7-9-7-10-7-9-7-10-7-9-7-|
D|------------------------------------|
A|------------------------------------|
D|------------------------------------|


E|-------------|
B|-------------|
G|-------------|
D|-0000-000----| do 4 times
A|-0000-000----|
D|-0000-000----|
   ...  ..

E|--------------|
B|--------------|
G|--------------|
D|-0000-0-0-0-0-| do 4 times
A|-0000-0-0-0-0-|
D|-0000-0-0-0-0-|
   .... . . . .

E|------------|
B|------------|
G|------------|
D|-1111-1-1-1-| do 2 times
A|-1111-1-1-1-|
D|-1111-1-1-1-|
   .... . . .

E|------------------------|
B|------------------------|
G|------------------------|
D|-00-0-0-0------------1~-|
A|-00-0-0-0-(2times)---1~-|
D|-00-0-0-0---------/\-1~-|
   .. . . .



Related for Utah tab