Song name
# A B C D E F G H I J K L M N O P Q R S T U V W X Y Z

Emarosa - I Am Waves tab

Hi, I upload a video on youtube from this song and I'll tab it now, and I 
think it's 99% accurrate, so any suggestion or something will not be allowed 
xD hahaha, and please, if someone could tab Too Close From Mississippi 
the whole song, please do it
Enjoy.


Drop D

E|-------------------------------------------|
B|-------------------------------------------|
G|-------------------------------------------|
D|-----000000-000000-000000--000000----------|
A|-----000000-000000-000000--000000----------|
D|-----000000-000000-000000--000000----------|

E|---------------------------------------------------------|
B|------------------------------------------------5h-------| hit it well
G|(3)/--77/99/10(10)(10)-1212/14/15(15)(15)-------5h-------|  those 
D|(x)---xx-xx-x-(x)-(x)--x-x--x--x-(x)-(x)-----------------| harmmonics
A|(1)/--55/77/8-(8)-(8)--1010/12/13(13)(13)----00----------|                       
D|---------------------------------------------00----------|      
                                               ..
E|-------------------------------------------|
B|-------------------------------------------|
G|-------------------------------------------|
D|-----000000-000000-000000--000000----------|
A|-----000000-000000-000000--000000----------|
D|-----000000-000000-000000--000000----------|

E|-------------------------------------------------------|
B|-------------------------------------------------------|
G|(3)/--77/99/10(10)(10)-1212/14/15(15)(15)--------------|
D|(x)---xx-xx-x-(x)-(x)--x-x--x--x-(x)-(x)---------------|
A|(1)/--55/77/8-(8)-(8)--1010/12/13(13)(13)--------------|
D|-------------------------------------------------------|

This part do it fast

E|-------------------------------------------|
B|--44444-7--44444---------------------------|
G|--77777-10-77777---------------------------|
D|-------------------------------------------|
A|------------------0------------------------|
D|------------------0----8888888-4444444-----|
                    .    ....... .......
                        (it doesn't really sound but..)
E|------------------------------------------------|
B|---44--44--4---44--44--4-----7-7---7-7---7------|
G|---77--77--7---77--77--7-----1010--1010--10-----|
D|------------------------------------------------|
A|-00--00--00---00--00--00--00-----00----00-------|
D|-00--00--00---00--00--00--00-----00----00-------|
   ..  ..  ..   ..  ..  ..  ..     ..    ..       

Figure out the time and do it faster

E|-----------------------------|
B|---101010101010---161616-----|
G|---131313131313---191919-----|
D|-----------------------------|
A|-00--------------------------|
D|-00--------------------------|
   ..                        

E|------------------------|
B|------------------------|
G|------------------------|
D|------------------------|
A|--77777777-88888888-----|
D|--77777777-88888888-----|

E|----------------------------------------------------|
B|-------------------------------------------5h-------| try do 
G|--77/99/10(10)(10)-1212/14/15(15)(15)------5h-------| the best you
D|--xx-xx-x-(x)-(x)--x-x--x--x-(x)-(x)----------------| can all the 
A|--55/77/8-(8)-(8)--1010/12/13(13)(13)----00---------| harmmonics
D|-----------------------------------------00---------|
                                           ..
E|---------------------------|
B|---------------------------|
G|---------------------------|
D|---------------------------|
A|---888--888-101010--101010-|
D|---888--888-101010--101010-|

E|---------------------------------------------------|
B|---------------------------------------------------|
G|--77/99/10(10)(10)-1212/14/15(15)(15)---(0)--------|
D|--xx-xx-x-(x)-(x)--x-x--x--x-(x)-(x)-----0---------|
A|--55/77/8-(8)-(8)--1010/12/13(13)(13)----0---------|
D|-----------------------------------------0---------|

E|--20--20--20--20--20-------------------------------|
B|----18--18--18--18--18-18181818181818181818----5h--|
G|-----------------------------------------------5h--|
D|---------------------------------------------------|
A|---------------------------------------------00----|
D|---------------------------------------------00----|
                                               ..

I don't know if there are the exacts strumming so.. figured them out, 
it's easy

E|--------------------------------------------|
B|--------------------------------------------|
G|--1212121212121212/1414141414/151515--------|
D|--x-x-x-x-x-x-x-x--x-x-x-x-x--x-x-x---------|
A|--1010101010101010/1212121212/131313--------|
D|--------------------------------------------|

E|------------------------------|
B|---44--44--7----44--44--7-----|
G|---77--77--10---77--77--10----|
D|------------------------------|
A|-00--00--00---00--00--00------|
D|-00--00--00---00--00--00------|
   ..  ..  ..   ..  ..  ..           Repeat all this x2

Then come the best part of the song !

E|---------|
B|---------|
G|---------|
D|-3-5-7-8-|
A|-3-5-7-8-|
D|-3-5-7-8-|

Don't do it so fast and not to slow

E|---------------------------------------------------------|
B|---------------------------------------------------------|
G|---------------------------------------------------------|
D|------------------------------------------------------3b-|
A|---------------------------------------------------3h5---|
D|-0-0-7-0-5-0-3-0-7-0-5-0-3b-0-0-7-0-5-0-3--000-3h5-------|
                                             ... 

E|-----------------------------------------------------------|
B|------------------------------------------------------5h---|
G|------------------------------------------------------5h---|
D|--------------------------(that last bend----0-0-00000-----|
A|--------------------------its almost full)---0-0-00000-----|
D|-0-0-7-0-5-0-3-0-7-0-5-0-3b-0-0-7-0-5-0-3b---0-0-00000-----|
                                                   .....
                                                   fast

E|------------------------------------------------------|
B|------------------------4444---------------5h--5h-----|
G|------------------------7777---------------5h--5h-----|
D|------------------------------------------------------|
A|------------------------------------------------------|
D|-0h3h5-0h3h5-0h3h5-0h3h5-----0h3h5-0h3h5--0---00------|
                                            .   ..
                                  those p.m. do them fast 
E|------------------------------------------------------|
B|------------------------4444---------------0--5h------|
G|------------------------7777---------------0--5h------|
D|------------------------------------------------------|
A|------------------------------------------------------|
D|-0h3h5-0h3h5-0h3h5-0h3h5-----0h3h5-0h3h5--0--00-------|
                                            .  ..
      (this 0 from E to G)
E|-------------0----------------|
B|--------16---0--------5h------|     try to do the best you 
G|--------19---0-------5h-------|       those harmmonics
D|-----0-----0---0----5h--------|
A|-----0-----0---0---5h---------|
D|-----0-----0---0--------------|

Try to catch the time, its not hard ;)

E|------------------------------------|
B|------------------------------------|
G|------------------------------------|
D|-----0000--00---0000-00-0~--1/12\1--|
A|-----0000--00---0000-00-0~--1/12\1--|
D|-----0000--00---0000-00-0~--1/12\1--|
       ....  ..   .... ..

Do it very fast, and if you want, you can play all the strings but hiting
well those who are tab here

E|-------------------------------------------------------------------|
B|-4444444444444444777777777777777744444444444444447777777777777777--|
G|-7777777777777777101010101010101077777777777777771010101010101010--|
D|-------------------------------------------------------------------|
A|-------------------------------------------------------------------|
D|-------------------------------------------------------------------|

Ending


E|-------------------------------------------------|
B|-------------------------------------------------|
G|------7------10------7------10----10-------10----|
D|---00-x---00-x----00-x---00-x--0--x--0-0-0-x-----|
A|---00-5---00-8----00-5---00-8--0--8--0-0-0-8-----|
D|---00-----00------00-----00----0-----0-0-0-------|
     ..     ..      ..     ..    .     .   .

E|-----------------------------|
B|-----------------------------|
G|-----------------------------|   let it ring 
D|-----00000000000000000000~---|
A|-----00000000000000000000~---|
D|-----00000000000000000000~---|
       ....................          

Well thats all, any suggestion mail me or something, enjoy the tab and
support this great band, Emarosa
bye, love to Chile, my country.                 
Tap to rate this tab
 
# A B C D E F G H I J K L M N O P Q R S T U V W X Y Z