Song name
# A B C D E F G H I J K L M N O P Q R S T U V W X Y Z

Emarosa - Heads Or Tails Real Or Not tab

Emarosa
Heads or Tails Real or Not
Relativity Album

Sorry, hahah..
The tab is terribly wrong..

what a shame..

no rating, pls.

i'LL try again, sorry.

Intro:
guitar1:
|--------------|
|--------------|
|-77-77-77-77--|
|-77-77-77-77--|
|-55-55-55-55--|
|--------------|

then guitar2 comes in:
|--------------|
|--------------|
|-77-77-77-77--|
|-77-77-77-77--|
|-55-55-55-55--|
|--------------|

then:
both guitars:
|-----------------|
|-----------------|
|--777777777777---|
|--777777777777---|
|--555555555555---|
|-----------------|

then this riffs:
guitar1:
|--10----------------9--|
|-----7h9h10-------9----|
|-------------9h11------|
|-----------------------|
|-----------------------|
|-----------------------|

guitar2:
|------------------|
|------------2-----|
|----2---------2---|
|------4---2-------|
|--------4---------|
|------------------|

crap.
Tap to rate this tab
# A B C D E F G H I J K L M N O P Q R S T U V W X Y Z