Song name
# A B C D E F G H I J K L M N O P Q R S T U V W X Y Z

Emarosa - Breather tab

Emarosa-Breather
short song but nice
Tuning- D, A, D, G, B, E


--2~--2~--2~-----------------------6--------|
----------------------7---------7-----------|
-------------------10--10-10-10--10---------|
--1~--1~--1~-----88--8---8--8--8------------|
--1~--1~--1~--------------------------------|
--1~--1~--1~--------------------------------|x8

Guitar 1
---------------------------------------------------------------------------|
---------------------------------------------------------------------------|
-888-1010-1111-888-111111-1010-151515-131313-161616-151515-131313-111111---|
---------------------------------------------------------------------------|
-666--8 8--9 9--666--9-9-9--8-8-131313-111111-141414-131313-111111--9-9-9--|
---------------------------------------------------------------------------|x2

Guitar 2 comes in after guitar 1 does ^ once through
-------------------------6--------|
------------7---------7-----------|
---------10--10-10-10--10---------|
-------88--8---8--8--8------------|
----------------------------------|
----------------------------------|

End on
-----------|
-----------|
-1~--------|
-1~--------|
-1~--------|
Tap to rate this tab
# A B C D E F G H I J K L M N O P Q R S T U V W X Y Z