Song name
# A B C D E F G H I J K L M N O P Q R S T U V W X Y Z

Emarosa - Set It Off Like Napalm tab

Help us improve GuitareTab! Take a short survey!
-------------------------------------------------------------------------------
			     Set it Off Like Napalm - Emarosa
-------------------------------------------------------------------------------
Tabbed by: Miles

I know this isn’t exact but no one has tabs out for it yet and this is all I 
could think of. If anyone else knows….please correct me.

Tuning: C#

D#|---------------------------------------------------------------------------|
A#|--5*-----------------------------------------------------------------------|
F#|--5*----------3---------------10--9-----------3-------------10-------------|
C#|--------------3---------------10--9-----------3-------------10-------------|
g#|---------5-7--1---------5-7---8---7-------5-7-1--------5-7--8--------------|
C#|-----0-7------1-----0-7-------8---7---0-7-----1----0-7------8--------------|


| /  slide up
| \  slide down
| h  hammer-on
| p  pull-off
| ~  vibrato
| +  harmonic
| x  Mute note
| *  harmonic


===============================================================================

Related for Set It Off Like Napalm tab