Song name
# A B C D E F G H I J K L M N O P Q R S T U V W X Y Z

Emarosa - I Still Feel Her Part 1 tab

---------------------------------------------------------------              
I Still Feel Her: Part 1 - Emarosa
---------------------------------------------------------------
Tabbed by: Kristyn Lee
Email: spot_the_village_loony_836@hotmail.com

Tuning: Db Ab Db Gb Bb eb

guitar 1
eb|----------8----------------------------|
Bb|------6h8---8~------8------------------|
Gb|--5h8-----------5/7---8/10-------------|
Db|---------------------------8~----------|
Ab|---------------------------------------|
Db|---------------------------------------|
guitar 2                                  |
eb|---------------------------------------|
Bb|---------------------------------------|
Gb|----------3-----------3p2--------------|
Db|------3h5---3~------5-----3/5~---------|
Ab|--3h6-----------3h6--------------------|
Db|---------------------------------------|

guitar 1
eb|---------------------------------------|
Bb|------6h8-4h6~-------6/11--------------|
Gb|--5h8------------5h8------10~----------|
Db|---------------------------------------|
Ab|---------------------------------------|
Db|---------------------------------------|
guitar 2                                  |
eb|-------------------------6-------------|
Bb|------6h8-4h6~-------4h6---------------|
Gb|--5h8------------5h8-------7-8\\\------|
Db|---------------------------------------|
Ab|---------------------------------------|
Db|---------------------------------------|

guitar 1
eb|----------8----------------------------|
Bb|------6h8---8~-------8-----------------|
Gb|--5h8------------5/7---8/10------------|
Db|----------------------------8~---------|
Ab|---------------------------------------|
Db|---------------------------------------|
guitar 2                                  |
eb|---------------------------------------|
Bb|---------------------------------------|
Gb|--------3p2------------3p2-------------|
Db|------3-----3~-------5-----3/5~--------|
Ab|--3h6------------3h6-------------------|
Db|---------------------------------------|

guitar 1
eb|---------------------------------------|
Bb|------6h8-4h6~-------6/11--------------|
Gb|--5h8------------5h8------10~----------|
Db|---------------------------------------|
Ab|---------------------------------------|
Db|---------------------------------------|
guitar 2                                  |
eb|-------------------------6-------------|
Bb|------6h8-4h6~-------4h6---------------|
Gb|--5h8------------5h8-------7-8\\\------|
Db|---------------------------------------|
Ab|---------------------------------------|
Db|---------------------------------------|

guitar 1
eb|---------------------------------------------------------------------|
Bb|-------------------------------15-13-15-13-15-13-15-13-15-13-15-13---|
Gb|---12-12-12-12-12-15-15-15-15----------------------------------------|
Db|---------------------------------------------------------------------|
Ab|---------------------------------------------------------------------|
Db|---------------------------------------------------------------------|
guitar 2     this is a bit off
eb|------------------------------------------------------|
Bb|------------------------------------------------------|
Gb|--------------------------------------12--------------|
Db|-----------------3h5-8p7---------8-10-----------------|
Ab|--6666-6666--3h6---------10p8/10----------------------|
Db|--6666-6666-------------------------------------------|

That's all i have for now. It's a start.

| /  slide up
| \  slide down
| h  hammer-on
| p  pull-off
| ~  vibrato
| +  harmonic
| x  Mute note
==============================================================
Tap to rate this tab
# A B C D E F G H I J K L M N O P Q R S T U V W X Y Z