Song name
# A B C D E F G H I J K L M N O P Q R S T U V W X Y Z

Emarosa - A City Called Coma Part Ii tab

-----------------------------------------------------------
          A City Called Coma: Part II - Emarosa
-----------------------------------------------------------
Tabbed by: Kristyn Lee
Email: spot_the_village_loony_836@hotmail.com

Tuning: Half Step Down

Guitar 1
eb|---------------------------------------------------|
Bb|------4~---------------------4---------------------|
Gb|------8~------/7\5-----------8--7777777777777777---|
Db|--0-------0-4------8-7-5--0-----7777777777777777---|
Ab|--0-----------------------0-----5555555555555555---|
Db|--0-----------------------0------------------------|
     .                       .
Guitar 2
eb|---------------------------------------------------|
Bb|------4~----4----4----4------4---------------------|
Gb|------8~----7----8----5------8--7777777777777777---|
Db|--0-----------------------------7777777777777777---|
Ab|--0-----------------------------5555555555555555---|
Db|--0------------------------------------------------|
Guitar 1  0:12
eb|----------------5-------------------------|
Bb|------------6h8---8-6---6--888888-10------|
Gb|--------5h7-----------7-------------------|x2
Db|--5h7h8-----------------------------------|
Ab|------------------------------------------|
Db|------------------------------------------|
Guitar 2 0:12
eb|------------------------------------------|
Bb|------------------------------------------|
Gb|--8888888888888888--7777777777777777------|x2
Db|--8888888888888888--7777777777777777------|
Ab|--6666666666666666--5555555555555555------|
Db|------------------------------------------|

God Damn these songs are hard to tab. 


| .  palm mute
| /  slide up
| \  slide down
| h  hammer-on
| p  pull-off
| ~  vibrato
| +  harmonic
| x  Mute note
=======================================================
Tap to rate this tab
# A B C D E F G H I J K L M N O P Q R S T U V W X Y Z