Song name
# A B C D E F G H I J K L M N O P Q R S T U V W X Y Z

Emarosa - Heads Or Tails Real Or Not chords

------------------------------------------------------------------
      Heads or Tails? Real or Not - Emarosa
------------------------------------------------------------------
Tabbed by: Kristyn Lee
Email: spot_the_village_loony_836@hotmail.com

Tuning: Db Ab Db Gb Bb Eb

Intro
eb|---------------------------------------------|
Bb|----------------7-77-77-777777---99999999----|
Gb|--7-77-7-77-77-------------------------------|
Db|--7-77-7-77-77--7-77-77-777777---99999999----|
Ab|--5-55-5-55-55--5-55-55-555555---77777777----|
Db|---------------------------------------------|

eb|---12--------------9----------------------------------|
Bb|------9h10h12--------12-------------------------------|
Gb|--------------9h11------------------------------------|
Db|------------------------------------------------------|
Ab|------------------------------------------------------|
Db|------------------------------------------------------|

    "you loved it when my heart dropped..."
eb|------------------------------------------------------|
Bb|--55555555--------------------------------------------|
Gb|--77777777-999999--66666666---------------------------|
Db|--77777777-999999--44444444---------------------------|
Ab|--55555555-999999--44444444---------------------------|
Db|-----------999999--44444444---------------------------|

eb|------------------------------------------------------|
Bb|------------------------------------------------------|
Gb|------------------------------------------------------|
Db|-----------11\9---------------------------------------|
Ab|--12\9-7/9--------------------------------------------|
Db|------------------------------------------------------|
      "stopped and walked away..."
eb|------------------------------------------------------|
Bb|------------------------------------------------------|
Gb|--77777777-999999--66666666---------------------------|
Db|--77777777-999999--44444444---------------------------|
Ab|--55555555-999999--44444444---------------------------|
Db|-----------999999--44444444---------------------------|

eb|---9--------------------------------------------------|
Bb|-----10-----------------------------------------------|
Gb|--------9----9/11-------------------------------------|
Db|----------11------------------------------------------|
Ab|------------------------------------------------------|
Db|------------------------------------------------------|
    "full of content..."
eb|-----------------9------------------------------------|
Bb|-------------7-9--------------------------------------|
Gb|------------------------------------------------------|x2
Db|------11\7----------9/11\7----------------------------|
Ab|--7h9-------------------------------------------------|
Db|------------------------------------------------------|
         "your way..."
eb|------------------------------------------------------|
Bb|--9-9h10----------------------------------------------|
Gb|---------9---------9-6--------------------------------|
Db|------------9/11\7------------------------------------|
Ab|------------------------------------------------------|
Db|------------------------------------------------------|
      "these cuts...that i caused..."
eb|-----------------9------------------------------------|
Bb|-------------7-9--------------------------------------|
Gb|------------------------------------------------------|
Db|------11\7----------9/11\7----------------------------|
Ab|--7h9-------------------------------------------------|
Db|------------------------------------------------------|

     "peel back the bandage..."
eb|---12------------------------12--------------------------|
Bb|------9~--10h12h14-12p10-9------9~--10h12h14-12p10-9-----|
Gb|---------------------------------------------------------|
Db|---------------------------------------------------------|
Ab|---------------------------------------------------------|
Db|---------------------------------------------------------|

   "from countless careless things..."
eb|---17------17----17----17----17-16----16----16----16----16------|
Bb|------14~-----14----14----14-------15----15----15----15----15---|
Gb|----------------------------------------------------------------|
Db|----------------------------------------------------------------|
Ab|----------------------------------------------------------------|
Db|----------------------------------------------------------------|

   "and feel yourself drifting..."
eb|--------------------------------------------------|
Bb|--------------------------------------------------|
Gb|---14-1414-14-1414-1414-14-1414-14-1414-1414------|
Db|---12-1212-12-1212-1212-12-1212-12-1212-1212------|
Ab|---12-1212-12-1212-1212-12-1212-12-1212-1212------|
Db|---12-1212-12-1212-1212-12-1212-12-1212-1212------|

         "pulled away..."
eb|------------------------------------------------------|
Bb|------------------------------------------------------|
Gb|----------------------9\7-6h7/9-----------------------|
Db|--000-000---99999999------------7/9-------------------|
Ab|--000-000---77777777----------------------------------|
Db|--000-000---------------------------------------------|
     ... ...

CHORUS
   "nothing feels real anymore..."
eb|-------------------------------------|
Bb|-------------------------------------|
Gb|---6666-9999--131313131313/16\14-----|
Db|---6666-9999--x-x-x-x-x-x--x--x------|
Ab|---4444-7777--111111111111/13\12-----|
Db|-------------------------------------|
      "i'm not taking my time anymore..."
eb|-------------------------------------------|
Bb|-------------------------------------------|
Gb|---18181818-14141414-131313131313/16\14----|
Db|---x-x-x-x--x-x-x-x--x-x-x-x-x-x--x--x-----|
Ab|---16161616-12121212-111111111111/14\12----|
Db|-------------------------------------------|
          "to show you how i feel..."
eb|--------------------------------------------------------|
Bb|--------------------------------------------------------|
Gb|--66666666666666-999999999999-13131313/16\1414141414----|
Db|--66666666666666-999999999999--x-x-x-x--x--x-x-x-x-x----|
Ab|--44444444444444-777777777777-11111111/14\1212121212----|
Db|--------------------------------------------------------|
         "coz it's locked away..."
eb|---------------------------------------------------------|
Bb|---------------------------------------------------------|
Gb|--666666666666-999999999999--141414141414-131313131313---|
Db|--666666666666-999999999999---x-x-x-x-x-x--x-x-x-x-x-x---|
Ab|--444444444444-777777777777--121212121212-111111111111---|
Db|---------------------------------------------------------|

eb|-----------------------|
Bb|-----------------------|
Gb|--161616161616-18~-----|
Db|---x-x-x-x-x-x--x------|
Ab|--141414141414-16~-----|
Db|-----------------------|

1:38 - 2:01 ??  no idea what the chords are
guitar 1
eb|--------------------------------------------------|
Bb|--------------------------------------------------|
Gb|--------------------------------------------------|x2
Db|---7p6--------9/11~---7p6--------9/11~--7~---7~---|
Ab|-------7-9/11-------------7-9/11------------------|
Db|--------------------------------------------------|
other guitar plays this
eb|---5-/12\4--/9\5--/12\4-----------------|
Bb|------------------------5--\2--/7/9-----|
Gb|----------------------------------------|x4
Db|----------------------------------------|
Ab|----------------------------------------|
Db|----------------------------------------|
2:27  guitar 1
eb|----------|-------------|
Bb|----------|-------------|
Gb|----------|-------------|x2
Db|---9p7----|--7-11-6-7---|
Ab|-------7--|-------------|
Db|----------|-------------|

  "nothing feels real anymore..."
eb|-------------------------------------|
Bb|-------------------------------------|
Gb|---6666-9999--131313131313/16\14-----|
Db|---6666-9999--x-x-x-x-x-x--x--x------|
Ab|---4444-7777--111111111111/14\12-----|
Db|-------------------------------------|
 "i'm not taking my time anymore..."
eb|---------------------------------------|
Bb|---------------------------------------|
Gb|---18181818-9999-131313131313/16\14----|
Db|---x-x-x-x--xxxx--x-x-x-x-x-x--x--x----|
Ab|---16161616-7777-111111111111/14\12----|
Db|---------------------------------------|

3:01  guitar 1
eb|--------------------------------------------------|
Bb|--------------------------------------------------|
Gb|--------------------------------------------------|x2
Db|---7p6--------9/11~---7p6--------9/11~--7~---7~---|
Ab|-------7-9/11-------------7-9/11------------------|
Db|--------------------------------------------------|
    guitar 2
eb|---5-/12\4--/9\5--/12\4-----------------|
Bb|------------------------5--\2--/7/9-----|
Gb|----------------------------------------|x2
Db|----------------------------------------|
Ab|----------------------------------------|
Db|----------------------------------------|
3:14   guitar 1
eb|----------|-------------|
Bb|----------|-------------|
Gb|----------|-------------|x2
Db|---9p7----|--7-11-6-7---|
Ab|-------7--|-------------|
Db|----------|-------------|

Repeat Chorus

3:55   "the things we think about..."
eb|---------------------------9-------|
Bb|-----9h10p9------9h10----9---------|
Gb|--11--------11-11-----11-----------|
Db|-----------------------------------|
Ab|-----------------------------------|
Db|-----------------------------------|


that's all so far. not finished yet.


| /  slide up
| \  slide down
| h  hammer-on
| p  pull-off
| ~  vibrato
| +  harmonic
| x  Mute note
================================================================
Tap to rate this tab
# A B C D E F G H I J K L M N O P Q R S T U V W X Y Z