Song name
# A B C D E F G H I J K L M N O P Q R S T U V W X Y Z

Emarosa - The Game Played Right tab

-------------------------------------------------
         The Game Played Right - Emarosa
-------------------------------------------------
Tabbed by: Kristyn Lee
Email: spot_the Village_loony_836@hotmail.com

Tuning: Db Ab Db Gb Bb Eb

Intro
Guitar 1
eb|---------------------------------------------|
Bb|---------------------------------------------|
Gb|-------777------7777p6----777------5555p4----|x2
Db|---------------------------------------------|
Ab|---------------------------------------------|
Db|---999-----9988--------77-----5522-----------|
Guitar 2
eb|------------12-----------------------------------|
Bb|---12-15-12----14-15-14-17-14-15-17p15-14h15-----|
Gb|-------------------------------------------------|x2
Db|-------------------------------------------------|
Ab|-------------------------------------------------|
Db|-------------------------------------------------|

guitar 1
eb|----------------------------|
Bb|----------------------------|
Gb|-----777----777-------------|x1
Db|----------------------------|
Ab|----------------------------|
Db|---5-----5------5-2~--------|
guitar 2
eb|--------------------------------------|
Bb|------15-------17---------------------|
Gb|---11----14-16----16-15~~---(16)-------|x1
Db|--------------------------------------|
Ab|--------------------------------------|
Db|--------------------------------------|

0:16  guitar 1   (0:16 - 0:51)
strum these chords through the verse  
eb|---10-----9-----7----6-------------|
Bb|---12-----10----8----7-------------|
Gb|---11-----9-----9----6-------------|
Db|-----------------------------------|
Ab|-----------------------------------|
Db|-----------------------------------|
0:16 guitar 2
eb|--------9-~--------------------------|
Bb|--------10~--------------------------|
Gb|---7/9--9-~----6h7/9~--/12~---12~----|
Db|-------------------------------x-----|
Ab|------------------------------10~----|
Db|-------------------------------------|
0:31 Guitar 2
eb|-------------------------------------|
Bb|-------------------------------------|
Gb|-------------------------------------|
Db|---9-99h11p9-8~----------------------|
Ab|-------------------------------------|
Db|-------------------------------------|

0:52 
Guitar 1     "I feel..."
eb|----------------------------------------------------|
Bb|----------------------------------------------------|
Gb|---1212121212121212111111111111111111777799999999---|
Db|---x-x-x-x-x-x-x-x-x-x-x-x-x-x-x-x-x-xxxxxxxxxxxx---|
Ab|---10101010101010109-9-9-9-9-9-9-9-9-555577777777---|
Db|----------------------------------------------------|
Guitar 2
eb|-----------------------------------------------|
Bb|-----------------------------------------------|
Gb|--121212121212/1614111111111111111199999999----|
Db|--x-x-x-x-x-x--x-x-x-x-x-x-x-x-x-x-xxxxxxxx----|
Ab|--101010101010/14129-9-9-9-9-9-9-9-77777777----|
Db|-----------------------------------------------|
Guitar1  1:01
eb|---------------------------------------|
Bb|---------------------------------------|
Gb|---999999999999/11111111---------------|
Db|---xxxxxxxxxxxx-x-x-x-x----------------|
Ab|---777777777777/9-9-9-9----------------|
Db|---------------------------------------|
Guitar 2
eb|---------------------------------------|
Bb|---------------------------------------|
Gb|---------------------------------------|
Db|---------------------------------------|
Ab|---77777777777788----------------------|
Db|---77777777777788----------------------|
      ........

Chorus
guitar 1   "is there anyone..."
eb|---------------------------------------------|
Bb|---------------------------------------------|
Gb|-------777------7777p6----777------5555p4----|x2
Db|---------------------------------------------|
Ab|---------------------------------------------|
Db|---999-----9988--------77-----5522-----------|
Guitar 2
eb|------------12-----------------------------------|
Bb|---12-15-12----14-15-14-17-14-15-17p15-14h15-----|
Gb|-------------------------------------------------|x2
Db|-------------------------------------------------|
Ab|-------------------------------------------------|
Db|-------------------------------------------------|
Guitar 1    "sink or swim is all i know tonight..."
eb|--------------------------------------|
Bb|--------------------------------------|
Gb|----444----666-----77777--------------|
Db|--------------------------------------|
Ab|--------------------------------------|
Db|--5-----57-----7-9-------99999999-----|
Guitar 2
eb|----------------------------------------|
Bb|------15-------17-------15-17p15-14-----|
Gb|---11----14-16----14-11------------14---|
Db|----------------------------------------|
Ab|----------------------------------------|
Db|----------------------------------------|
Guitar 1    "wake..."
eb|---------------------|
Bb|---------------------|
Gb|-----444-------------|
Db|---------------------|
Ab|---------------------|
Db|---5-----5-7~--------|
Guitar2
eb|---------------------|
Bb|------15-------------|
Gb|---11----14/15~------|
Db|---------------------|
Ab|---------------------|
Db|---------------------|

1:25  2nd verse goes the same as the first.  Then The pre-chorus and chorus are the same.

2:16   "did you honestly believe...you meant something to me..."   
Guitar 1
eb|-----------------------------------------------------------------------|
Bb|---3333333333333333----------------------------------------------------|
Gb|---xxxxxxxxxxxxxxxx-7777777777777777-11111111111111111111111111111111--|
Db|---2222222222222222-5555555555555555-9-9-9-9-9-9-9-9-9-9-9-9-9-9-9-9---|
Ab|---2222222222222222-5555555555555555-9-9-9-9-9-9-9-9-9-9-9-9-9-9-9-9---|
Db|---2222222222222222-5555555555555555-9-9-9-9-9-9-9-9-9-9-9-9-9-9-9-9---|

eb|--------------------------------|
Bb|--------------------------------|
Gb|---9999999999999999-------------|
Db|---7777777777777777-------------|
Ab|---7777777777777777-------------|
Db|---7777777777777777-------------|
2:16
Guitar 2 tremolo pick these notes

eb|---10--12--10--10--9--12--10--10--12--10--10--9--12--10-12~----|
Bb|---------------------------------------------------------------|
Gb|---------------------------------------------------------------|
Db|---------------------------------------------------------------|
Ab|---------------------------------------------------------------|
Db|---------------------------------------------------------------|

2:46 - 3:07  Strum these chords
eb|-----------------------------------------------------------------|
Bb|-----------------------------------------------------------------|
Gb|----111111-11111111111111-111111-111111111111--9999999---9999----|
Db|----x-x-x--x-x-x-x-111111-x-x-x--x-x-x-111111--xxxxxxx---xxxx----|
Ab|---99-9-9-99-9-9-9-9-9-9-88-8-8-88-8-8-8-8-8-777777777-7-7777----|
Db|---99-9-9-99-9-9-9-9-9-9-88-8-8-88-8-8-8-8-8-777777777-7-7777----|

eb|---------------------------------------|
Bb|---------------------------------------|
Gb|---11/12---1111-111111-----------------|
Db|---x--x----x-x--x-x-x-121212p11h12-----|
Ab|---9/-10---1010-101010101010-----------|
Db|---------------------------------------|

3:09 Guitar 1 plays these notes, i think they are picked then strummed.
eb|-------------------------------------------------------|
Bb|------19----19----19----19----17----17----17----17-----|
Gb|---16----16----16----16----15----15----15----15--------|
Db|-------------------------------------------------------|
Ab|-------------------------------------------------------|
Db|-------------------------------------------------------|

eb|-----------------------------------------------------------|
Bb|------17----17----17----17----17----15----15----15----15---|
Gb|---14----14----14----14----14----14----14----14----14------|
Db|-----------------------------------------------------------|
Ab|-----------------------------------------------------------|
Db|-----------------------------------------------------------|

3:09 Guitar 2 plays this twice.
eb|-----------------------------------------------------------------|
Bb|-----------------------------------------------------------------|
Gb|----111111-11111111111111-111111-111111111111--9999999---9999----|
Db|----x-x-x--x-x-x-x-111111-x-x-x--x-x-x-111111--xxxxxxx---xxxx----|
Ab|---99-9-9-99-9-9-9-9-9-9-88-8-8-88-8-8-8-8-8-777777777-7-7777----|
Db|---99-9-9-99-9-9-9-9-9-9-88-8-8-88-8-8-8-8-8-777777777-7-7777----|

eb|---------------------------------------|
Bb|---------------------------------------|
Gb|---11/12---1111-111111-----------------|
Db|---x--x----x-x--x-x-x-121212p11h12-----|
Ab|---9/-10---1010-101010101010-----------|
Db|---------------------------------------|



************************************
| .   palm mute
| /   slide up
| \   slide down
| h   hammer-on
| p   pull-off
| ~   vibrato
| +   harmonic
| x   Mute note
| b   Bend
| pb  Pre-bend
| br  Bend release
| pbr Pre-bend release
| brb Bend release bend

************************************
Tap to rate this tab
 
# A B C D E F G H I J K L M N O P Q R S T U V W X Y Z