Emarosa - A Toast To The Future Kids Acoustic tab

------------------------------------------------------------------
	      A Toast To The Future Kids?  - Emarosa
------------------------------------------------------------------

Tabbed by: Peter Butler
Email: peter@epicrobot.com
Twitter: @midgar777

Hello Emarosa fans ^_^! Like the rest of you I really want to learn this awesome song! 
I've tried watching the acoustic video over and over but the camera unfortunately 
focuses on Jonny a lot and not the guitarists so it's hard to tab out. 
Thanks and be nice (first real tab :S!) 

Tuning: Db Ab Db Gb Bb Eb

Intro Riff

eb|--------------------------------------|
Bb|--5~-------3~-------------------------|
Gb|--5~-------4~-------5~-------7~-------|        ring out
Db|--7~-------5~-------3~-------5~-------|        played twice
Ab|--0~-------0~-------3~-------5~-------|
Db|--------------------3~-------5~-------|

Pre Verse - hang on the chord below for 2 bars:

eb|----------|
Bb|--5-------|
Gb|--x-------|        
Db|--7-------|        
Ab|--0-------|
Db|----------|

Verse - same as intro but strum it:

eb|----------------------------------------|
Bb|--55555555-33333333---------------------|
Gb|--55555555-44444444-55555555-77777777---|        Play this riff x2
Db|--77777777-55555555-33333333-55555555---|        
Ab|--00000000-00000000-33333333-55555555---|
Db|--------------------33333333-55555555---|

then palm mute this

eb|--------------------------|
Bb|--------------------------|
Gb|--------------------------|        
Db|---555555555555-555-------|        
Ab|---555555555555-555-------|
Db|---555555555555-555-------|

Chorus - Strum these (listen to song for timing!)

eb|-------------------------------|
Bb|-------------------------------|
Gb|---2--------4--------5---------|        
Db|---3--[x1]--5--[x1]--7--[x2]---|     Play this riff x2   
Ab|---x--------x--------x---------|
Db|---3--------5--------7---------|

then

eb|--------------------------------|
Bb|--------------------------------|
Gb|----9--------7--------5---------|        
Db|---10--[x1]--9--[x1]--7--[x2]---|     
Ab|----x--------x--------x---------|
Db|---10--------9--------7---------|

finally

eb|----------------------|
Bb|----------------------|
Gb|---2--------4---------|        
Db|---3--[x2]--5--[x2]---|     
Ab|---x--------x---------|
Db|---3--------5---------|

That's all I've got guys, sorry if it's lame or inaccurate! Please email me 
or tweet me (@midgar777) if you have any question or corrections etc! 

Please Rate / Comment / Correct <3

Thanks!
Tap to rate this tab
 
# A B C D E F G H I J K L M N O P Q R S T U V W X Y Z