Emarosa - Heads Or Tail Real Or Not tab

wanna clear up at least how you play the beginning of this song.

guitar 1

eb|--------------------|
Bb|--------------------|
Gb|-6--66--6--66--66---|
Db|-6--66--6--66--66---|
Ab|-4--44--4--44--44---|
Db|-6--66--6--66--66---|


guitar 2 comes in here

eb|-------------------------|
Bb|-6--66--6--6-6-6-6-6-6---|
Gb|-------------------------|
Db|-6--66--6--6-6-6-6-6-6---|
Ab|-4--44--4--4-4-4-4-4-4---|
Db|-6--66--6--6-6-6-6-6-6---|

eb|-------------------------|
Bb|-8-8-8-8-8-8-8-8---------|
Gb|-------------------------|
Db|-8-8-8-8-8-8-8-8---------|
Ab|-6-6-6-6-6-6-6-6---------|
Db|-8-8-8-8-8-8-8-8---------|


guitar 1

eb|-11---------------8------|
Bb|----8h9h11------9--------|
Gb|-----------8h10----------|
Db|-------------------------|
Ab|-------------------------|
Db|-------------------------|

both

eb|-------------|    strumming pats are easy to figure out
Bb|-------------|
Gb|-6-----------|
Db|-6---8---3---|
Ab|-4---8---3---|
Db|-6---8---3---|
Tap to rate this tab
 
# A B C D E F G H I J K L M N O P Q R S T U V W X Y Z