Song name
# A B C D E F G H I J K L M N O P Q R S T U V W X Y Z

Emarosa - The Past Should Stay Dead tab

 First of all, i'll like to thank EVERY: Tab, Emarosa at shows vids and guitar covers 
vids in the internet! Without them it wouldn't have been possible for me to make this tab 
(seriously, i  would like to name you all, but you guys are a lot!)...lots of 
hours spent, hearing and playing this amazing song!

BOTH GUITARS!, i'm pretty sure it's like 90% acurate, so i hope you'll apreciate this as 
much as i did making it!

-----------------------------------------
Also you can check:
-  The tab for Even Bad Men Love Their Mothers (both guitars)
-  The video of this song played with my acoustic. (http://www.youtube.com/watch?v=lwT7LcI-j1A)

---------------------------------

Tuning: Drop C#

b - Bend
h - Hammer On
p - Pull Off
/ - Slide
. - Palm Muted
(h) - Harmonic


1st Guitar.

(0:00 - 0:17) Tailored sheets...
eb|--------------------|------------|
Bb|--------------------|------------|
Gb|--9----------11/12--|---12--11---| *2nd time add this
Db|--9----9------x-----|----x---x---|
Ab|--7----7------9/10--|---10---9---|
Db|------10------------|------------|

I can't be pushed aside
eb|-----------b10----10--10--10---|
Bb|--b12------b12--12--12--12-----|
Gb|--b14--------------------------|
Db|-------------------------------|
Ab|-------------------------------|
Db|-------------------------------|

(0:18 - 0:20)
eb|-------------------------|
Bb|-------------------------|
Gb|--9/4---4/7--------------|
Db|--x-x---x-x---00-2--0-7--|
Ab|--7/2---2/5---00-2--0-7--|
Db|--------------00-2--0-7--|
		    ..

(0:20 - 0:30) Wind is blowing thru..
eb|----------------------------|
Bb|----------------------------|
Gb|-------------------9--------|
Db|--------7----10----7---12---|
Ab|---7----7----10----7---12---|
Db|---10---10---10----7---12---|

(0:30 - 0:40 )Now hit the floor...
eb|----------------------------------------------------|
Bb|-----8---------------8------------------------------|
Gb|-------9-7----0--------9-7----0--------0--------0---|
Db|--/9-------9-7----/9-------9-7----/9--7-7--/9--7-7--|
Ab|----------------------------------------------------|
Db|----------------------------------------------------|

(0:41 - 0:51) For once, lets leave the dreaming...
eb|-----------------------------------|
Bb|-----8p0---------------------------|
Gb|----------9/7p0-4/7p0-4p0-5p0-9p0--| x3
Db|-9p0-------------------------------|
Ab|-----------------------------------|
Db|-----------------------------------|

eb|--------------------------------|
Bb|-----8p0------------------------|
Gb|----------9/7p0-4/7-7-7-7-7-7---|
Db|-9p0----------------------------|
Ab|--------------------------------|
Db|--------------------------------|

(0:52 - 1:02) Our time has slipped away..
eb|-----------------------------------|
Bb|-----8p0---------------------------|
Gb|----------9/7p0-4/7p0-4p0-5p0-9p0--| x2
Db|-9p0-------------------------------|
Ab|-----------------------------------|
Db|-----------------------------------|

We're sinking faster, faster, no more play..
eb|------10p0-7p0-------14p0-10p0-------------|
Bb|-8p0-----------10p0------------8p0-10p0----|
Gb|-------------------------------------------|
Db|-------------------------------------------| x2
Ab|-------------------------------------------|
Db|-------------------------------------------|

(1:02 - 1:13) Get ready for the catch, I'm at the..
eb|-------------------------------------------|
Bb|-------------8p0---------------------------|
Gb|------------------9/7p0-4/7p0-4p0-5p0-9p0--| x2
Db|-0h7p9p0-----------------------------------|
Ab|-------------------------------------------|
Db|-------------------------------------------|

..next step, waiting for our year
eb|------10p0-7p0-------14p0-10p0------------|
Bb|-8p0-----------10p0------------8p0-10p0---|
Gb|------------------------------------------|
Db|------------------------------------------| x2
Ab|------------------------------------------|
Db|------------------------------------------|

(1:13 - 1:18) And all at once...
eb|-------------------------------------------|
Bb|-10p0--7p0-7h8p0---10p0-7p0-7-7h8p7--------|
Gb|------------------------------------9p7----|
Db|-------------------------------------------|
Ab|-------------------------------------------|
Db|-------------------------------------------|

It leaves you breathless...
eb|--------------------------------------|
Bb|-----------10--------(7h)-------------|
Gb|--7/9--7/9-----9---7-9----------------|
Db|--------------------------------------|
Ab|-------------------------10-9-7-0-----|
Db|--------------------------------0-----|

(1:18 - 1:23) With next to nothing...
eb|-----------------------------|
Bb|-----------------------------|
Gb|---------(7h)----------------|
Db|-2-0-x-0-(7h)-0-2-0----------|
Ab|-2-0-x-0------0-2-0----------|
Db|-2-0-x-0------0-2-0----------|

(1:24 - 1:26) But open hands...
eb|-----------------|
Bb|-----------------|
Gb|--2////12////2---| * string sliding up and down
Db|--2////12////2---|
Ab|--2////12////2---|
Db|--2////12////2---|

(1:26 - 1:36) Reach out, hold on tight...
eb|-----------------------------|
Bb|-10-------12--10------12-----|
Gb|----11-12-------11-12--------|
Db|-----------------------------|
Ab|-----------------------------|
Db|-----------------------------|

I know it hurts but keep trying...
eb|----------12-----------12----|
Bb|-12-----------12-------------|
Gb|----14-12--------14-12-------|
Db|-----------------------------|
Ab|-----------------------------|
Db|-----------------------------|

(1:37 - 1:46) And with your luck, this won't be over quick..
eb|-----------------------------|
Bb|-10-------12--10------12-----|
Gb|----11-12-------11-12--------|
Db|-----------------------------|
Ab|-----------------------------|
Db|-----------------------------|

Out of the blue it strikes...
eb|----------12-----------12---------|
Bb|-12-----------12-------------b12--|
Gb|----14-12--------14-12-------b14--|
Db|----------------------------------|
Ab|----------------------------------|
Db|----------------------------------|

(1:37 - 1:52) ..You
eb|--------------|
Bb|---8-----10---|
Gb|---9-----11---|
Db|---7-----12---|
Ab|---7-----9----|
Db|--------------|

(1:53 - 1:59) What's left to catch, but the fear of letting go?
eb|------------------------------------|-------------------------------|
Bb|------------------------------------|----------8-------------8------|
Gb|------------12-11--11-11-11/9/7p0---|------11----11-----1111----11--|
Db|--0h9-10-12-------------------------|x2--9---9--------9-------------|
Ab|------------------------------------|-------------------------------|
Db|------------------------------------|-------------------------------|

(2:00 - 2:06) And bite down, the stress gets harder now...
eb|---------------------------------------------------|
Bb|-------------------------------------------555555--|
Gb|-------11h12-12-11-------------9-------5555000000--|
Db|----12-------------12-------9----9-----5555444444--|
Ab|-/10---------------------/7--7-----7---3333555555--|
Db|---------------------------------------------------|

(2:07 - 2:18) The mood is let down..
eb|-----------|-------------|
Bb|--7----10--|-------------|
Gb|--x----x---|-----7---11--|
Db|--5----7---|*or--4---7---| x2
Ab|--7----9---|-----5---9---|
Db|-----------|-------------|


(2:19 - 2:28) For once don't be so weak..
eb|-------------------------------0------|-----------------|
Bb|-------3-----------3-------------0----|----33333-33333--|
Gb|---------0-----------0----4-----------|----xxxxx-xxxxx--|
Db|-----2-----------4----------2------2--|x3--22222-55555--|
Ab|--0h3------3--3/5-------2----2--------|----33333-44444--|
Db|--------------------------------------|-----------------|

(2:37 - 2:58) For once don't be so weak..
eb|--------------------------------------------|
Bb|--------------------------------------------|
Gb|--9999-9-999-99/12-121212/11-1111-11-111111-|
Db|--------------------------------------------|
Ab|--7777-7-777-77/10-101010/-9--9-9--9--9-9-9-|
Db|--------------------------------------------|

eb|-----------------------------------|
Bb|-----------------------------------|
Gb|--1111/14141414-14-141414-14141414-|
Db|-----------------------------------|
Ab|---9-9/12121212-12-121212-12121212-|
Db|-----------------------------------|

eb|-------------------------------|
Bb|-------------------------------|
Gb|--1919191919/1616161616161616--|
Db|-------------------------------|
Ab|--1717171717/1414141414141414--|
Db|-------------------------------|

I've seen your mistake and it's you...
eb|--------------------------------------------------------|
Bb|--------------------------------------------------------|
Gb|--9-9-99-999-99/12-1212-12/11-11111111-111111-1111/14---|
Db|--------------------------------------------------------|
Ab|--7-7-77-777-77/10-1010-10/9--9-9-9-9--9-9-9--9-9/12----|
Db|--------------------------------------------------------|

eb|-------------------------------------------|
Bb|-------------------------------------------|
Gb|--141414/171717-17171717-17171717-17171717-|
Db|-------------------------------------------|
Ab|--121212/151515-15151515-15151515-15151515-|
Db|-------------------------------------------|

eb|--------------------------------------|
Bb|--------------------------------------|
Gb|--16161616-16161616-19191919-19191919-|
Db|--------------------------------------|
Ab|--14141414-14141414-17171717-17171717-|
Db|--------------------------------------|

(2:59 - 3:19) Let hate save you...
eb|------------------------------------|
Bb|--------4/7---7b--------------------|
Gb|-4--3--------10b--------------------|
Db|-2--0--------------9999999-999999---| x4
Ab|-2--0--------------7777777-777777---|
Db|-2--0-------------10101010-101010---|

(3:20 - 3:23)
eb|------------------|
Bb|------------------|
Gb|------------------|
Db|--5-4-5-4-5-4-5---|
Ab|--7-5-7-5-7-5-7---|
Db|------------------|

(3:24 - 3:40) The mood is let down...
eb|-----------|-------------|
Bb|--7----10--|-------------|
Gb|--x----x---|-----7---11--|
Db|--5----7---|*or--4---7---| x2
Ab|--7----9---|-----5---9---|
Db|-----------|-------------|

(3:36 - 3:40) take this last second to know..
eb|------------------|
Bb|------------------|
Gb|-------------21---|* this part was pretty
Db|---12---11--------| hard to catch with my
Ab|---12---12---19---| acoustic (i'll fix it)
Eb|---12---12--------|

(3:41 - 3:56) We know who does it best..
eb|--------------------------------|
Bb|--------------4--7--8-7---------|
Gb|----------5---x--x--x-x--12-11--|
Db|--9---9---5---4--5--5-5--12-12--|
Ab|--7---7---3---5--7--7-7--10--9--|
Db|--------------------------------|

(3:57 - 4:08) Now hit the floor...
eb|-----------------|
Bb|--3---3----------|
Gb|--x---x---9---9--|
Db|--2---4---9---9--|
Ab|--3---5---7---7--|
Db|-----------------|

(4:08 - 4:16) Let fate save you...
eb|---------------------|
Bb|------4--7--8--7--8--|
Gb|--5---x--x--x--x--x--|
Db|--5---4--5--5--5--5--|
Ab|--3---5--7--7--7--7--|
Db|---------------------|

(4:17 - 'till end)
eb|-------------------------|
Bb|------8-----------7--8---|
Gb|--9---9---9---0---x--x---|
Db|--9---9---5---4---5--5---|
Ab|--7---7---7---5---7--7---|
Db|-------------------------|

--------------------------------------

Guitar 2

(0:00 - 0:17) Tailored sheets...
eb|--------------|------------|
Bb|--------------|------------|
Gb|--4---5--7----|--4---9-----|
Db|--2---2--4--x2|--2---7-9---|
Ab|--2---3--5----|--2---7-7---|
Db|--2-----------|--2---7-10--|

(0:18 - 0:20)
eb|---------------------------|
Bb|---------------------------|
Gb|--9/4---4/7----------------|
Db|---------------00-2-00-10--|
Ab|--7/2---2/5----00-2-00-10--|
Db|---------------00-2-00-10--|

(0:20 - 0:36) Wind is blowing thru...
eb|-----|--151515----------------------------|
Bb|-----|--------151515------131313-12121212-|
Gb|-----|--------------121212----------------|
Db|--10-|------------------------------------|x4
Ab|--10-|------------------------------------|
Db|--10-|------------------------------------|

(0:36 - 0:41) We've all made better moves...
eb|-------10-10---------15-15-----|
Bb|--12-13-----13--12-13----------|
Gb|-------------------------------|
Db|-------------------------------|
Ab|-------------------------------|
Db|-------------------------------|

(0:42 - 0:52) For Once, lets leave the dreaming...
eb|-----0--------|
Bb|-----0--0--0--|
Gb|-----2--2--2--|
Db|--2--2--0--2--|
Ab|--0-----------|
Db|--------------|

(0:51 - 1:13) Our time has slipped away...
eb|----------------------------------------------|
Bb|----------------------------------------------|
Gb|--------------9/4p0-4/7p0--9/4p0-4/7p0-7/4p0--|
Db|--2---7---9-----------------------------------|x2
Ab|--2---7---7-----------------------------------|
Db|--2---7---10----------------------------------|

(1:13 - 1:26) And all at once...
eb|----------------------|--------------------------------|
Bb|----------------------|--------------------------------|
Gb|---------(7h)---------|--------------9/4p0h4/7p0-------|
Db|-2-0-x-0-(7h)-0-2-0---|--2/5p0-5/9p0------------2/5p0--|
Ab|-2-0-x-0------0-2-0---|--------------------------------|
Db|-2-0-x-0------0-2-0---|--------------------------------|

(1:27 - 1:46) Reach out, hold on tight...
eb|--------------------------------|
Bb|--------------------------------|
Gb|--------------9/4p0h4/7p0-------|
Db|--2/5p0-5/9p0------------2/5p0--|x8
Ab|--------------------------------|
Db|--------------------------------|

(1:47 - 1:59) What's left to catch but the fear of letting go?
eb|-----------------------------------12-14-15-14-12--|
Bb|---------------------------12-13-15----------------|
Gb|--9----11------------------------------------------|
Db|--7----12----2/9-9--2/9-9--------------------------|
Ab|--7----9-----2/9-9--2/9-9--------------------------|
Db|-------------2/9-9--2/9-9--------------------------|

(1:59 - 2:07) And bite down...
eb|------------------|
Bb|------------------|
Gb|--7--9---9---9-9--|
Db|--5--x--10--1010--|
Ab|--7--7--10--1010--|
Db|--------10--1010--|

(2:08 - 2:18) The mood is let down...
eb|-----------------------------------|
Bb|-----------------------------------|
Gb|-11/7-11/7-11/7--11/14-11/14-11/14-|
Db|--x-x--x-x--x-x---x-x---x-x---x-x--| x2
Ab|--9/5--9/5--9/5---9/12--9/12--9/12-|
Db|-----------------------------------|

(2:19 - 2:28) For once don't be so weak...
eb|---------------------------|-----------------------------|
Bb|-------3-----------3-------|-------3-----------3-----5b--|
Gb|---------0-----------0--4--|---------0-----------0---8b--|
Db|-----2-----------4------2--|-----2-----------4-----------|
Ab|--0h3------3--3/5-------2--|--0h3------3--3/5------------|
Db|------------------------2--|-----------------------------|

(2:29 - 2:36) Fall deeper into a world...
eb|----------------------------|
Bb|---12b----5b----12b----15b--|
Gb|---15b----8b----15b----18b--|
Db|----------------------------|
Ab|----------------------------|
Db|----------------------------|

(2:37 - 2:58) For once don't be so weak...
eb|------------------------------------------------------------------------|
Bb|------------------------------------------------------------------------|
Gb|--9999-9-999-99/12-121212/141414-14-14---9999-9-999-99/55-5/77-7/4-4444-|
Db|--xxxx-x-xxx-xx-x---x-x-x-x-x-x---x--x---xxxx-x-xxx-xx-xx-x-xx-x-x-xxxx-|x2
Ab|--7777-7-777-77/10-101010/121212-12-12---7777-7-777-77/33-3/55-5/2-2222-|
Db|------------------------------------------------------------------------|

(2:59 - 3:19) Let hate save you...
eb|-------------------------------------------|
Bb|-------------------------------------------|
Gb|-4--3------3/12----------------------------|
Db|-2--0-x----------0---555555-555555-55555---| x4
Ab|-2--0-x----------0---777777-777777-77777---|
Db|-2--0-x----------0-------------------------|
                    .
(3:20 - 3:23)
eb|---------------------|
Bb|---------------------|
Gb|---------------------|
Db|--2-0---2-0---2-0-2--|
Ab|--2-0---2-0---2-0-2--|
Db|--2-0---2-0---2-0-2--|

(3:24 - 3:40) The mood is let down...
eb|-----------------------------------|----------------------|
Bb|-----------------------------------|----------------------|
Gb|-11/7-11/7-11/7--11/14-11/14-11/14-|----99999995555555---|
Db|--x-x--x-x--x-x---x-x---x-x---x-x--|x2--------------------|
Ab|--9/5--9/5--9/5---9/12--9/12--9/12-|----77777773333333---|
Db|-----------------------------------|----------------------|

(3:41 - 'till end)
eb|--151515----------------------------|
Bb|--------151515------131313-12121212-|
Gb|--------------121212----------------|
Db|------------------------------------|
Ab|------------------------------------|
Db|------------------------------------|
Tap to rate this tab
 
# A B C D E F G H I J K L M N O P Q R S T U V W X Y Z