Song name
# A B C D E F G H I J K L M N O P Q R S T U V W X Y Z

Emarosa - A Toast To The Future Kids tab

    Emarosa - A Toast To The Future Kids
    Tuning: C# (C#, G#, C# F#, A#, D#)
    Tabbed by Max Cloke

   
*This tab is based on the acoustic version performed at Absolutepunk.net 
( http://www.youtube.com/watch?v=PyS2satvLHY&feature=fvwrel )



intro


|---------------------------------|
|---------------------------------|
|--5--------4---------5--------4--| 
|--7--------5---------3--------5--|  x2
|--x--------x---------3--------x--|
|--7--------5---------3--------5--|


Verse            "how you, became my life.."


|---------------------------------------------------------|
|---------------------------------------------------------|
|--5-5-5-5-5-----4-4-4-4-4------5-5-5-5-5-----4-4-4-4-4---|
|--7-7-7-7-7-----5-5-5-5-5------3-3-3-3-3-----5-5-5-5-5---|
|--x-x-x-x-x-----x-x-x-x-x------3-3-3-3-3-----x-x-x-x-x---|
|--7-7-7-7-7-----5-5-5-5-5------3-3-3-3-3-----5-5-5-5-5---|


|------------------------------------------------------------------------------------------|
|------------------------------------------------------------------------------------------|
|----5-5-5-5-5----4-4-4-4-4-----5-5-5-5-5-----7-7-7--5-5-5---7----9\7--3/5--5-5------------|
|----7-7-7-7-7----5-5-5-5-5-----3-3-3-3-3-----9-9-9--7-7-7---9----9\7--3/5--7-7-3/5-5-5-5--|
|----x-x-x-x-x----x-x-x-x-x-----3-3-3-3-3-----x-x-x--x-x-x---x------------------3/5-5-5-5--|
|----7-7-7-7-7----5-5-5-5-5-----3-3-3-3-3-----9-9-9--7-7-7---9--------------7-7-3/5-5-5-5--|
                                                                                 * * * *

Chorus 

   "well I'm about to spend my cold life.." (1st guitar)

 |----------------------------------|--------------------------------------|
 |----------------------------------|--------------------------------------|
 |--2-2-2----4-4-4----5-5-5-5-5-5---|----2-2-2----4-4-4----5-5-5-5-5-5-----|
 |--3-3-3----5-5-5----7-7-7-7-7-7---|----3-3-3----5-5-5----7-7-7-7-7-7-----|
 |--x-x-x----x-x-x----x-x-x-x-x-x---|----x-x-x----x-x-x----x-x-x-x-x-x-----|
 |--3-3-3----5-5-5----7-7-7-7-7-7---|----3-3-3----5-5-5----7-7-7-7-7-7-----|



   "Well I'm about to spend my cold life.." (2nd guitar)

 |---------------------------------|-------------------------------|
 |---------------------3-5-6-8-6-5-|-------------------3-5-6-8-6-5-|
 |-----------5-7-9-7-5-------------|---------5-7-9-7-5-------------|
 |------5-7------------------------|-----5-7-----------------------|
 |-5-7-----------------------------|-5-7---------------------------|
 |---------------------------------|-------------------------------|

 |-------------------------------|--------------------------------|
 |-------------------3-5-6-8-6-5-|--12-12-12-12-15-15-15-17-17-17-|
 |---------5-7-9-7-5-------------|--------------------------------|
 |-----5-7-----------------------|--------------------------------|
 |-5-7---------------------------|--------------------------------|
 |-------------------------------|--------------------------------|


 "so here's to starting over..." (1st guitar)

 |-------------------------------------|---------------------------------------|
 |-------------------------------------|---------------------------------------|
 |--9--9--9-----7-7-7-----5-5-5-5-5-5--|---9--9--9-----7-7-7-----5-5-5-5-5-5---|
 |--10-10-10----9-9-9-----7-7-7-7-7-7--|---10-10-10----9-9-9-----7-7-7-7-7-7---|
 |--x--x--x-----x-x-x-----x-x-x-x-x-x--|---x--x--x-----x-x-x-----x-x-x-x-x-x---|
 |--10-10-10----9-9-9-----7-7-7-7-7-7--|---10-10-10----9-9-9-----7-7-7-7-7-7---|



"so here's to starting over..." (2nd guitar)

 |-15-------15-------15-------15-13-12---15-------15-------15-------15-13-12-|
 |----13-12----13-12----13-12---------------13-12----13-12----13-12----------|
 |---------------------------------------------------------------------------|
 |---------------------------------------------------------------------------|
 |---------------------------------------------------------------------------|
 |---------------------------------------------------------------------------|


 |-15--------15-------15-------15--------------------------------------------|
 |----13-12-----13-12----13-12----13-12--15-15-15-13-13-13-12-12-12----------|
 |---------------------------------------------------------------------------|
 |------------------------------------------------------------------17-17-17-|
 |---------------------------------------------------------------------------|
 |---------------------------------------------------------------------------|



Pre verse 

"You can't get out..." 

|---------------------------------------------|
|---------------------------------------------|
|-------------------5--------------------2----|
|-x-x-x-x-x---------7----x-x-x-x-x-------3----|
|-x-x-x-x-x---------x----x-x-x-x-x-------x----|
|-x-x-x-x-x---------7----x-x-x-x-x-------3----|


verse   "fear, couldn't place it's hands on us..."



|-----------------------------------------------------------|    
|-----------------------------------------------------------|    
|--5-5-5-5-5-----4-4-4-4-4------5-5-5-5-5-------4-4-4-4-4---|     
|--7-7-7-7-7-----5-5-5-5-5------3-3-3-3-3-------5-5-5-5-5---|     
|--x-x-x-x-x-----x-x-x-x-x------3-3-3-3-3-------x-x-x-x-x---|     
|--7-7-7-7-7-----5-5-5-5-5------3-3-3-3-3-------5-5-5-5-5---|    
   

|-----------------------------------------------------| 
|-----------------------------------------------------| 
|----5-5-5-5-5------4-4-4-4-4-----5-5-5-5-5-----7-7-7-|
|----7-7-7-7-7------5-5-5-5-5-----3-3-3-3-3-----9-9-9-|
|----x-x-x-x-x------x-x-x-x-x-----3-3-3-3-3-----x-x-x-|
|----7-7-7-7-7------5-5-5-5-5-----3-3-3-3-3-----9-9-9-| 



       "string it along..."

     |----------------------|
     |----------------------|
     |-9/3------------------|
     |-9/3--5-5-x-5-5-x-5-5-|
     |------5-5-x-5-5-x-5-5-|
     |------5-5-x-5-5-x-5-5-|




Chorus 

"well I'm about to spend my cold life.."
   

 |----------------------------------|--------------------------------------|
 |----------------------------------|--------------------------------------|
 |--2-2-2----4-4-4----5-5-5-5-5-5---|----2-2-2----4-4-4----5-5-5-5-5-5-----|
 |--3-3-3----5-5-5----7-7-7-7-7-7---|----3-3-3----5-5-5----7-7-7-7-7-7-----|
 |--x-x-x----x-x-x----x-x-x-x-x-x---|----x-x-x----x-x-x----x-x-x-x-x-x-----|
 |--3-3-3----5-5-5----7-7-7-7-7-7---|----3-3-3----5-5-5----7-7-7-7-7-7-----|



"Well I'm about to spend my cold life.." (2nd guitar)

 |---------------------------------|-------------------------------|
 |---------------------3-5-6-8-6-5-|-------------------3-5-6-8-6-5-|
 |-----------5-7-9-7-5-------------|---------5-7-9-7-5-------------|
 |------5-7------------------------|-----5-7-----------------------|
 |-5-7-----------------------------|-5-7---------------------------|
 |---------------------------------|-------------------------------|


  |-------------------------------|--------------------------------|
  |-------------------3-5-6-8-6-5-|--12-12-12-12-15-15-15-17-17-17-|
  |---------5-7-9-7-5-------------|--------------------------------|
  |-----5-7-----------------------|--------------------------------|
  |-5-7---------------------------|--------------------------------|
  |-------------------------------|--------------------------------|

 "so here's to starting over..."

|-------------------------------------|---------------------------------------|
|-------------------------------------|---------------------------------------|
|--9--9--9-----7-7-7-----5-5-5-5-5-5--|---9--9--9-----7-7-7-----5-5-5-5-5-5---|
|--10-10-10----9-9-9-----7-7-7-7-7-7--|---10-10-10----9-9-9-----7-7-7-7-7-7---|
|--x--x--x-----x-x-x-----x-x-x-x-x-x--|---x--x--x-----x-x-x-----x-x-x-x-x-x---|
|--10-10-10----9-9-9-----7-7-7-7-7-7--|---10-10-10----9-9-9-----7-7-7-7-7-7---|



"so here's to starting over..." (2nd guitar)
-
 |--15-------15-------15-------15-13-12---15-------15-------15-------15-13-12-|
 |-----13-12----13-12----13-12---------------13-12----13-12----13-12----------|
 |----------------------------------------------------------------------------|
 |----------------------------------------------------------------------------|
 |----------------------------------------------------------------------------|
 |----------------------------------------------------------------------------|


 |-15--------15-------15-------15-------------------------------------------|
 |----13-12-----13-12----13-12----13-12--15-15-15-13-13-13-12-12-12---------|
 |--------------------------------------------------------------------------|
 |-----------------------------------------------------------------17-17-17-|
 |--------------------------------------------------------------------------|
 |--------------------------------------------------------------------------|



Bridge   "Seeing past, it's about time i asked for more..."

|---------------------------------------------------
|------------5--------------------------------------
|--7-------5----7h9p7-----------------9-7-5h7p5----- x 2
|--9---7----------------------------7---------------
|---------------------------------------------------
|--9------------------------------------------------


"but i always seem to give up on myself..."
-
|-----------------------------------------------|---------------------------------------------|
|-----------------------------------------------|---------------------------------------------|
|--9--9----7-7---9-9-9-9----5-5-5-5---7-7-7-7---|---9-9----7-7---9-9-9-9----5-5-5-5---7-7-7-7-|
|--10-10---9-9---7-7-7-7----3-3-3-3---5-5-5-5---|--10-10---9-9---7-7-7-7----3-3-3-3---5-5-5-5-|
|--x--x----x-x---7-7-7-7----3-3-3-3---5-5-5-5---|--x--x----x-x---7-7-7-7----3-3-3-3---5-5-5-5-|
|--10-10---9-9---7-7-7-7----3-3-3-3---5-5-5-5---|--10-10---9-9---7-7-7-7----3-3-3-3---5-5-5-5-|


|--------------------|
|--------------------|
|-9--9--9--9----7-7--|
|-10-10-10-10---9-9--|
|-x--x--x--x----x----|
|-10-10-10-10---9-9--|


Pre chorus 


|---------------------------------|
|---------------------3-5-6-8-6-5-|
|-----------5-7-9-7-5-------------|
|------5-7------------------------|
|-5-7-----------------------------|
|---------------------------------|



Chorus

"well I'm about to spend my cold life.." (1st guitar)
   

|----------------------------------|--------------------------------------|
|----------------------------------|--------------------------------------|
|--2-2-2----4-4-4----5-5-5-5-5-5---|----2-2-2----4--4--4----5-5-5-5-5-5---|
|--3-3-3----5-5-5----7-7-7-7-7-7---|----3-3-3----5--5--5----7-7-7-7-7-7---|
|--x-x-x----x-x-x----x-x-x-x-x-x---|----x-x-x----x--x--x----x-x-x-x-x-x---|
|--3-3-3----5-5-5----7-7-7-7-7-7---|----3-3-3----5--5--5----7-7-7-7-7-7---|



"Well I'm about to spend my cold life.." (2nd guitar)

|---------------------------------|-------------------------------|
|---------------------3-5-6-8-6-5-|-------------------3-5-6-8-6-5-|
|-----------5-7-9-7-5-------------|---------5-7-9-7-5-------------|
|------5-7------------------------|-----5-7-----------------------|
|-5-7-----------------------------|-5-7---------------------------|
|---------------------------------|-------------------------------|



|-------------------------------|-------------------------------|
|-------------------3-5-6-8-6-5-|-12-12-12-12-15-15-15-17-17-17-|
|---------5-7-9-7-5-------------|-------------------------------|
|-----5-7-----------------------|-------------------------------|
|-5-7---------------------------|-------------------------------|
|-------------------------------|-------------------------------|



 "so here's to starting over..." (1st guitar)


|-------------------------------------|---------------------------------------|
|-------------------------------------|---------------------------------------|
|--9--9--9-----7-7-7-----5-5-5-5-5-5--|---9--9--9-----7-7-7-----5-5-5-5-5-5---|
|--10-10-10----9-9-9-----7-7-7-7-7-7--|---10-10-10----9-9-9-----7-7-7-7-7-7---|
|--x--x--x-----x-x-x-----x-x-x-x-x-x--|---x--x--x-----x-x-x-----x-x-x-x-x-x---|
|--10-10-10----9-9-9-----7-7-7-7-7-7--|---10-10-10----9-9-9-----7-7-7-7-7-7---|



"so here's to starting over..." (2nd guitar)

|--15-------15-------15-------15-13-12---15-------15-------15-------15-13-12-|
|-----13-12----13-12----13-12---------------13-12----13-12----13-12----------|
|----------------------------------------------------------------------------|
|----------------------------------------------------------------------------|
|----------------------------------------------------------------------------|
|----------------------------------------------------------------------------|


|--15--------15-------15-------15-------------------------------------------|
|-----13-12-----13-12----13-12----13-12--15-15-15-13-13-13-12-12-12---------|
|---------------------------------------------------------------------------|
|------------------------------------------------------------------17-17-17-|
|---------------------------------------------------------------------------|
|---------------------------------------------------------------------------|



Outro


|---------------------|
|---------------------|
|--19-19-19/7---------|
|--x--x--x--x---------|
|--17-17-17/5---------|
|---------------------|
Tap to rate this tab
 
# A B C D E F G H I J K L M N O P Q R S T U V W X Y Z