Song name
# A B C D E F G H I J K L M N O P Q R S T U V W X Y Z

Emarosa - I Still Feel Her Part 4 tab

-----------------------------------------------------
	   I Still Feel Her pt.4 - Emarosa
-----------------------------------------------------
Tabbed by: Kristyn Lee
Email: spot_the_village_loony_836@hotmail.com

Tuning: Half Step Down

Im not sure about the picking pattern.
You'll have to play with the notes i've given.

Lead
D#|-----------------------------------------------------|
A#|---13-13-13------------------------------------------|
F#|-----------10-10-10-9-9h10p9-9-9h10p9h10-9-9-9-------|
C#|-----------------------------------------------------|
G#|-----------------------------------------------------|
C#|-----------------------------------------------------|
Rythem
D#|--------------------------------------------------|
A#|--------------------------------------------------|
F#|--------------------------------------------------|
C#|--------------------------------------------------|
G#|-----8-8-8-8-8-8-8-8-8-8-8-8-8-8-8-8--------------|
C#|-----8-8-8-8-8-8-8-8-8-8-8-8-8-8-8-8--------------|
Lead
D#|---------------------------------------------------|
A#|---13-13-13----------------------------------------|
F#|-----------10-10-10-9-9h10p9-9-9h10p9h10-9-9-9-----|
C#|---------------------------------------------------|
G#|---------------------------------------------------|
C#|---------------------------------------------------|
Rythem
D#|---------------------------------------------------|
A#|---------------------------------------------------|
F#|---------------------------------------------------|
C#|---------------------------------------------------|
G#|-----0-0-0-0-0-0-0-0-0-0-0-0-0-0-0-0---------------|
C#|-----0-0-0-0-0-0-0-0-0-0-0-0-0-0-0-0---------------|
Lead
D#|---------------------------------------------------|
A#|---13-13-13----------------------------------------|
F#|------------12-12-12h14p12-12-12-12h14p12-12-------|
C#|---------------------------------------------------|
G#|---------------------------------------------------|
C#|---------------------------------------------------|
Rythem
D#|---------------------------------------------------|
A#|---------------------------------------------------|
F#|---------------------------------------------------|
C#|---------------------------------------------------|
G#|-----3-3-3-3-3-3-3-3-3-3-3-3-3-3-3-3---------------|
C#|-----3-3-3-3-3-3-3-3-3-3-3-3-3-3-3-3---------------|
Lead
D#|------------------------------------------------------|
A#|------------------------------------------------------|
F#|---12-12-12-12-12-12-12-12-15-15-15-15-15-15-15-15----|
C#|------------------------------------------------------|
G#|------------------------------------------------------|
C#|------------------------------------------------------|
Rythem
D#|-------------------------------------------------|
A#|-------------------------------------------------|
F#|-------------------------------------------------|
C#|-------------------------------------------------|
G#|-----7-7-7-7-7-7-7-7-7-7-7-7-7-7-7-7-------------|
C#|-----7-7-7-7-7-7-7-7-7-7-7-7-7-7-7-7-------------|

Lead
D#|-----------------------------------------------------|
A#|---13-13-13------------------------------------------|
F#|-----------10-10-10-9-9h10p9-9-9h10p9h10-9-9-9-------|
C#|-----------------------------------------------------|
G#|-----------------------------------------------------|
C#|-----------------------------------------------------|
Rythem
D#|--------------------------------------------------|
A#|--------------------------------------------------|
F#|--------------------------------------------------|
C#|--------------------------------------------------|
G#|-----8-8-8-8-8-8-8-8-8-8-8-8-8-8-8-8--------------|
C#|-----8-8-8-8-8-8-8-8-8-8-8-8-8-8-8-8--------------|
Lead
D#|---------------------------------------------------|
A#|---13-13-13----------------------------------------|
F#|-----------10-10-10-9-9h10p9-9-9h10p9h10-9-9-9-----|
C#|---------------------------------------------------|
G#|---------------------------------------------------|
C#|---------------------------------------------------|
Rythem
D#|---------------------------------------------------|
A#|---------------------------------------------------|
F#|---------------------------------------------------|
C#|---------------------------------------------------|
G#|-----0-0-0-0-0-0-0-0-0-0-0-0-0-0-0-0---------------|
C#|-----0-0-0-0-0-0-0-0-0-0-0-0-0-0-0-0---------------|
Lead
D#|---------------------------------------------------|
A#|---13-13-13----------------------------------------|
F#|------------12-12-12h14p12-12-12-12h14p12-12-------|
C#|---------------------------------------------------|
G#|---------------------------------------------------|
C#|---------------------------------------------------|
Rythem
D#|---------------------------------------------------|
A#|---------------------------------------------------|
F#|---------------------------------------------------|
C#|---------------------------------------------------|
G#|-----3-3-3-3-3-3-3-3-3-3-3-3-3-3-3-3---------------|
C#|-----3-3-3-3-3-3-3-3-3-3-3-3-3-3-3-3---------------|
Lead
D#|-------------------------------------------------------------|
A#|-------------------------------------------------------------|
F#|---12-12-12-12-12-12-12-12-15-15-15-15-15-15-15-15/17\14-----|
C#|-------------------------------------------------------------|
G#|-------------------------------------------------------------|
C#|-------------------------------------------------------------|
Rythem
D#|-------------------------------------------------|
A#|-------------------------------------------------|
F#|-------------------------------------------------|
C#|-------------------------------------------------|
G#|-----7-7-7-7-7-7-7-7-7-7-7-7-7-7-7-7-------------|
C#|-----7-7-7-7-7-7-7-7-7-7-7-7-7-7-7-7-------------|



************************************

| /   slide up
| \   slide down
| h   hammer-on
| p   pull-off
| ~   vibrato
| +   harmonic
| x   Mute note
| b   Bend
| pb  Pre-bend
| br  Bend release
| pbr Pre-bend release
| brb Bend release bend

************************************
Tap to rate this tab
 
# A B C D E F G H I J K L M N O P Q R S T U V W X Y Z