Guitaretab - guitar tabs
Song name
# A B C D E F G H I J K L M N O P Q R S T U V W X Y Z

Emarosa - Epoch Coda tab

Title: Epoch Coda
Artist: Emarosa
Tabbed by: June Sayama
Tuning: D A D G B E

Intro:
E|------------------------------------------|
B|------------------------------------------|
G|-----/1212121212-------/14141414/15-------|
D|1-11--xxxxxxxxxx-----1--xxxxxxxxxxx-------|
A|1-11-/1010101010-----1-/12121212/13-------|
D|1-11-----------------1--------------------|


E|------------------------------------------|
B|------------------------------------------|
G|------320320320-----320320-5^-------------|
D|-5-55-----------5-5-----------------------|
A|-5-55-----------5-5-----------------------|
D|-5-55-----------5-5-----------------------|


E|------------------------------------------|
B|------------------------------------------|
G|------------------320320320-----320320-5^-|
D|-1-11--01-1--5-55----------0--------------|
A|-1-11--01-1--5-55-------------------------|
D|-1-11--01-1--5-55-------------------------|


E|--------------------------------------------------------|
B|--------------------------------------------------------|
G|-888888888888-333333333333-888888888888-333333333333----|
D|-xxxxxxxxxxxx-111111111111-xxxxxxxxxxxx-111111111111-00-|
A|-666666666666-111111111111-666666666666-111111111111-00-|
D|--------------111111111111--------------111111111111-00-|


E|-----------------------------------------|
B|-------8~--13---------8~--13----16-------|
G|-------x-----12-------x-----12-----------|do 2 times
D|-------6~------13--66-6~------13---------|
A|-------6~----------66-6~-----------------|
D|-------6~----------66-6~-----------------|
                     ..

E|---------------------------------------------|
B|------7------6--------------7------6---------|
G|-----10------9-------------10------9---------|
D|-850----0850---000-000-850----0850---00000---|
A|-850----0850---000-000-850----0850---00000---|
D|-850----0850---000-000-850----0850---00000---|
                 ... ...               .....

E|------------------------------------------|
B|------7------6------------7------6--------|
G|-----10------9-----------10------9--------|
D|-850----0850---0-0/8-850----0850---0------|
A|-850----0850---0-0/8-850----0850---0------|
D|-850----0850---0-0/8-850----0850---0------|


E|----------------------------------------------------|
B|----------------------------------------------------|
G|-/14141414-1515-12121212-1010-14141414-1515---------|
D|--xxxxxxxx-xxxx-xxxxxxxx-xxxx-xxxxxxxx-xxxx-3-5-3\2-|
A|-/12121212-1313-10101010--8-8-12121212-1313-3-5-3\2-|
D|--------------------------------------------3-5-3\2-|


E|-----------------------------------------------|
B|-----------------------------------------------|
G|-/14141414-1515-12121212-1414-10101010-1212----|
D|--xxxxxxxx-xxxx-xxxxxxxx-xxxx-xxxxxxxx-xxxx-00-|
A|-/12121212-1313-10101010-1212--88-8-8-1010-00-|
D|--------------------------------------------00-|
                                              ..
[ Tab from: http://www.guitaretab.com/e/emarosa/90666.html ]
E|------------------------------------------|
B|----------5----5---5/-7-------------------|
G|----------8----8---8/10-------------------|
D|-00000000---00---0------------------6655--|do 2 times
A|-00000000---00---0------------------6655--|
D|-00000000---00---0------0120521201206655--|
   ........   ..   .                  ....
(zero one two, not zero twelve)^


Then
E|-----------------------------------------------------------|
B|------7------6-----5*------5----5---5/-7-------------------|
G|-----10------9-----5*------8----8---8/10-------------------|
D|-850----0850---0/\----0000---00---0------------------------|
A|-850----0850---0/\----0000---00---0-------------------6655-|
D|-850----0850---0/\----0000---00---0-------0120521201206655-|
                        ....   ..   .                   ....
                      (zero one two, not zero twelve)^


E|---------------------------------------------------|
B|----------5-------------------5--------------------|
G|----------8-------------------8--------------------|
D|-0-0--0000-0-0-6-0-3-0-0--0000-0-0-6-0-3-6-0-3-0-0-|
A|-0-0--0000-0-0-6-0-3-0-0--0000-0-0-6-0-3-6-0-3-0-0-|
D|-0-0--0000-0-0-6-0-3-0-0--0000-0-0-6-0-3-6-0-3-0-0-|
   . .  .... . . . . . . .  .... . . . . . . . . . .

Continuation
E|-------------------------------|
B|-----5-------------------------|
G|-----8-------------------7^----|
D|-0000-0-0-6-0-3-0-0-00-3-------|
A|-0000-0-0-6-0-3-0-0-00-3-------|
D|-0000-0-0-6-0-3-0-0-00-3-------|
   .... . . . . . . . ..

E|------------------------------------------|
B|------------------------------------------|
G|---------------------------------------5^-|
D|-000000000~--0000000~--000000000~--000----|
A|-000000000~--0000000~--000000000~--000----|
D|-000000000~--0000000~--000000000~--000----|
   ........    ......    ........    ...

E|--------------------------------------------|
B|--------------------------------------------|
G|--------------------------------------------|
D|-0-0000-0002---0-0000-0001/12-0-0000-0002---|
A|-0-0000-000-32-0-0000-0001/12-0-0000-000-32-|
D|-0-0000-000----0-0000-0001/12-0-0000-000----|
   . .... ...    . .... ...       ...  ...
Continuation
E|---------------------------------------------|
B|--------------9999991010-999991010-999991010-|
G|--------------999999-9-9-99999-9-9-99999-9-9-|
D|-0-0000-0000--000000-0-0-00000-0-0-00000-0-0-|
A|-0-0000-0000---------------------------------|
D|-0-0000-0000---------------------------------|
     ...  ... 

Continuation
E|------------------------------------------|
B|-9991010999999991010-999991010-999991010--|
G|-999-9-999999999-9-9-99999-9-9-99999-9-9--|
D|-000-0-000000000-0-0-00000-0-0-00000-0-0--|
A|------------------------------------------|
D|------------------------------------------|


E|---------------------------|
B|-999101099-9~-10~--9~-10~--|
G|-999-9-999-9~--9~--9~--9~--|
D|-000-0-000-0~--7~--0~--7~--|
A|-----------0~--7~--0~--7~--|
D|-----------0~--7~--0~--7~--|

Outro:
E|------------------------------------------|
B|-9999\22222222/55555555/777-10h12-10h12---|
G|------------------------------------------|
D|------------------------------------------|
A|------------------------------------------|
D|------------------------------------------|
Well, for the outro, just repeat this with delay, pretty much until the song ends.

End with
E|------|
B|-9-10-|
G|------|
D|------|
A|------|
D|------|



Related for Epoch Coda tab