Guitaretab - guitar tabs
Song name
# A B C D E F G H I J K L M N O P Q R S T U V W X Y Z

Emarosa - Utah But Im Taller tab

:]

|--------------------------------------------------------|
|--------------------------------------------------------|
|--------------------------------------------------------|
|--------------------------------------------------------|
|----12---10---8---7---5~-----12---10---15---13--12*~----|
|-00---00---00--00--00-----00---00---00---00---00--------|(X2)

|---------------------------------------------------------------------|
|----------------------------------------------------10101010---------|
|----------------------------------------------------13131313^--------|
|---------------------------------------------------------------------|
|----12p0---10p0---8p0---7p0---5~-----12p0---10p0-00------------------|
|-00-----00-----00----00----00-----00-----00------00------------------|

--------------------------------------------------------------------|
----------------------------------------------------10101010101010--|
----------------------------------------------------13131313131313^-|
--------------------------------------------------------------------|
----12p0---10p0---8p0---7p0---5~-----12p0---10p0-00-----------------|
-00-----00-----00----00----00-----00-----00------00-----------------|

|-----------------------------------------|
|-----------------------------------------|
|-----------------------------------------|
|-----3^*---- 2-----3---3p2---7p5---------|
|-000----000----000---0-----0-------------|
|-000----000----000---0-----0-------------|(X2)

|-----------------------|
|-----------------------|
|-----------------------|
|--00000000-0-0-0-0-----|
|--00000000-0-0-0-0-----|
|--00000000-0-0-0-0-----|(x3) 2nd guitar continues this riff


|------------------------------------------------------------------------|
|------------------------------------------------------------------------|
|-77777777-7/--1414141414141414\--7/--15151515151515151414141414141414---|
|-xxxxxxxx-x/---x-x-x-x-x-x-x-x\--x/---x-x-x-x-x-x-x-x-x-x-x-x-x-x-x-x---|
|-55555555-5/--1212121212121212\--5/--13131313131313131212121212121212---|
-------------------------------------------------------------------------|

[ Tab from: http://www.guitaretab.com/e/emarosa/90864.html ]
----------------------------------------------------------------|
----------------------------------------------------------------|
-----7/1414141414141414\--7/--15151515151515151414141414141414--|
-----x/-x-x-x-x-x-x-x-x\--x/---x-x-x-x-x-x-x-x-x-x-x-x-x-x-x-x--|
-----5/1212121212121212\--5/--13131313131313131212121212121212--|
----------------------------------------------------------------|

|----------------------------------------------------------------------|
|----------------------------------------------------------------------|
|-14141414141414141414141414141414-1717171717171717-1919191919191919---|
|--x-x-x-x-x-x-x-x-x-x-x-x-x-x-x-x--x-x-x-x-x-x-x-x--x-x-x-x-x-x-x-x---|
|-12121212121212121212121212121212-1515151515151515-1717171717171717---|
|----------------------------------------------------------------------|

|---------------------------------------------------|
|---------------------------------------------------|
|---------------------------------------------------|
|-00-00-00---00-00-00---99-99-99---99-99-99---------|
|-00-00-00---00-00-00---99-99-99---99-99-99---------|
|-00-00-00---00-00-00---99-99-99---99-99-99---------|(X2)
-
|-------------------------------------------------------------|
|-------------------------------------------------------------|
|-----77777777/1414141414141414\--77777777/1515151514141414---|
|-----xxxxxxxx/-x-x-x-x-x-x-x-x\--xxxxxxxx/-x-x-x-x-x-x-x-x---|
|-----55555555/1212121212121212\--55555555/1313131312121212---|
|-------------------------------------------------------------|

------------------------------------------|
------------------------------------------|
-3333333-ten10ten---3333333--ten999-------|
-xxxxxxx-xxxxxxxx---xxxxxxx--xxxxxx-------|
-1111111/88888888\--1111111-/888777-------|
------------------------------------------|(X2)

|------------------------------------------|
|------------------------------------------|
|------------------------------------------|
|-00-2h3-00--00 2h3--00 2h3-00-3/5-3-2-3---|
|------------------------------------------|
|------------------------------------------|

|-----------------------------------------|
|-----------------------------------------|
|-----------------------------------------|
|-----3^*---- 2-----3---3p2---7p5---------|
|-000----000----000---0-----0-------------|
|-000----000----000---0-----0-------------|

thats all i know

:]

tylerp.
Related for Utah But Im Taller tab
Advertisement will be closed in 10 seconds