Song name
# A B C D E F G H I J K L M N O P Q R S T U V W X Y Z

Emblem 3 - 3000 Miles tab

This is my first tab... I hope it isn't terrible! please comment what you think!!!

Intro
e|-----------------------------------------------------|
B|-----1-----1-----0-----0-----1-----1-----------------|
G|-----0-----0-----0-----0-----2-----2-----------------|
D|---2-----2-----2-----2-----2-----2-------------------|
A|-3-----3-----2-----2-----0-----0---------------------|
E|-----------------------------------------------------|

Verses
e|---------------------------------------------------------------------------|
B|----1-----1-----1-----1-----0-----0-----0-----0----1-----1----1----1-----1-|
G|----0-----0-----0-----0-----0-----0-----0-----0----2-----2----2----2-----2-|
D|--2-----2-----2-----2-----2-----2-----2-----2-----2----2-----2----2----3---|
A|3-----3-----3-----3-----2-----2-----2-----2-----0----0-----0----0----0-----|
E|---------------------------------------------------------------------------|

e|-------------------|
B|----1-----1-----1--|
G|----2-----2-----2--|
D|--3-----3-----3----|
A|0-----0-----0------|
E|-------------------| x2

Verse 1:
First winter's snowfall
Throwing backyard snowballs
Warming up by the fireplace
Marshmallows catch fire on an open flame
All my friends get together
Wishing I was there but I'm never
Living in the sunshine oh but dreaming of a place called home

Verse 2:
You don't pick up but I keep redialing
Cause you're asleep got your phone on silent
Still early here I'm wide awake
I just wanna hear you tell me all about today
Although I never really showed it
I had to leave for me to notice
That living in the sunshine's cold I'm dreaming of a place called home

Pre-Chorus
e|-----------------------------------------------------|
B|-----1-----1-----0-----0-----1-----1-----------------|
G|-----0-----0-----0-----0-----2-----2-----------------|
D|---2-----2-----2-----2-----2-----2-------------------|
A|-3-----3-----2-----2-----0-----0---------------------|
E|-----------------------------------------------------|x2


I wanna run wanna run away-ay
I'm dreaming of a place called home
I could try but I'm stuck in today
I'm dreaming of a place that's

Chorus
e|---------------------------------------------------------------------------|
B|----1-----1-----1-----1-----0-----0-----0-----0----1-----1----1----1-----1-|
G|----0-----0-----0-----0-----0-----0-----0-----0----2-----2----2----2-----2-|
D|--2-----2-----2-----2-----2-----2-----2-----2-----2----2-----2----2----3---|
A|3-----3-----3-----3-----2-----2-----2-----2-----0----0-----0----0----0-----|
E|---------------------------------------------------------------------------|

e|-------------------|
B|----1-----1-----1--|
G|----2-----2-----2--|
D|--3-----3-----3----|
A|0-----0-----0------|
E|-------------------| x2

3000 miles away
Feels like is forever
Seems like yesterday
We were we were running 'round town together
This place, just ain't the same
I miss the stormy weather
I'm not okay
3000 miles

Bridge
e|---------------------------------------------------------------------------|
B|----1-----1-----1-----1-----0-----0-----0-----0----1-----1----1----1-----1-|
G|----0-----0-----0-----0-----0-----0-----0-----0----2-----2----2----2-----2-|
D|--2-----2-----2-----2-----2-----2-----2-----2-----2----2-----2----2----3---|
A|3-----3-----3-----3-----2-----2-----2-----2-----0----0-----0----0----0-----|
E|---------------------------------------------------------------------------|

e|-------------------|
B|----1-----1-----1--|
G|----2-----2-----2--|
D|--3-----3-----3----|
A|0-----0-----0------|
E|-------------------| x2

If I could go back for the weekend
Or just for a day
To see to see familiar faces, that's all it would take
But it's too far

To end the song just play the chorus twice but use these chords:

C E Am F
Tap to rate this tab
# A B C D E F G H I J K L M N O P Q R S T U V W X Y Z