Song name
# A B C D E F G H I J K L M N O P Q R S T U V W X Y Z

Embodyment - White Flag tab

Author/Artist: Embodyment
Title: White Flag
Album: Industry Demo
Transcribed by: Cj
Email: cjtheman_2@hotmail.com

This is an incomplete tab....I dont have the skill or the
resources to complete this song.

Note: I am not going to put the timing of the notes....you
can hear the song and figure it out yourself.  :)

------------------------------------------------------------------------------|
------------------------------------------------------------------------------|
----5------7-----9--------5------7----9---------12-----9-------12----9--------|
----x------x-----x--------x------x----x----------x-----x--------x----x--------|
----3------5-----7--------3------5----7---------10-----7-------10----7--------|
------------------------------------------------------------------------------|


-------0----------------------------------------------------------------------|
-------0----------------------------------------------------------------------|
------------------------------------------------------------------------------|
-2----------------------------------------------------------------------------|
-2----------------------------------------------------------------------------|
-0----------------------------------------------------------------------------|


God Bless Embodyment


and God Bless America
Tap to rate this tab
# A B C D E F G H I J K L M N O P Q R S T U V W X Y Z