Song name
# A B C D E F G H I J K L M N O P Q R S T U V W X Y Z

Embrace - Gravity tab

umm....this is my first tab. i hope u like it.

E||--------------11------|-10-----------10------|----------------------|
B||-8----------------8---|------------------8---|-11------------11--9--|
G||----------------------|----------------------|----------------------|
D||----------------------|----------------------|----------------------|
A||----------------------|----------------------|----------------------|
E||----------------------|----------------------|----------------------|

E||----------------------|
B||-9--8--8----------8--8|
G||----------10--10------|  X2
D||----------------------|
A||----------------------|
E||----------------------|
Tap to rate this tab
# A B C D E F G H I J K L M N O P Q R S T U V W X Y Z