Song name
# A B C D E F G H I J K L M N O P Q R S T U V W X Y Z

Embrace - No Use Crying tab

-------------------------------------------------------------------------------
			     NO USE CRYING - Embrace
-------------------------------------------------------------------------------
Tabbed by: Farnz
Email: carboy280@gmail.com

Tuning: Standard

e|-----------------------------|
B|----------------------11-11--|
G|----8-7-8 10-10-8-7-8--------|
D|-----------------------------|
A|-----------------------------|
E|-----------------------------|

e|-----------------------------|
B|----------9-9----------------|
G|----8-7-8-----8-7-8-10-10----|
D|-----------------------------|
A|-----------------------------|
E|-----------------------------|

e|-----------------------------|
B|-----------------------------|
G|----8-7-8/7------------------|
D|------------8----------------|
A|-----------------------------|
E|-----------------------------|
Tap to rate this tab
# A B C D E F G H I J K L M N O P Q R S T U V W X Y Z