Song name
# A B C D E F G H I J K L M N O P Q R S T U V W X Y Z

Emc2 - Dont Think Its Creepy tab

Song: Don't Think It's Creepy
Artist: E=MC2
Album: What Do You Mean We Need An Album Title?
Year: 2011


This is a wonderful song from an up and coming artist...
It's about love and not giving up...
Hopefully someone will like it...


Intro (Guitar 1):

e|---------------------------------------------------------------------------|
B|---------------------------------------------------------------------------|
G|----------------------------0----------------------------------------------|     x4
D|------------0-----------2-------2------------------------------------------|
A|--------2-------2---0h3----------------------------------------------------|
E|----3----------------------------------------------------------------------|

Intro (Guitar 2):

e|---------------------------------------------------------------------------|
B|---------------------------------------------------------------------------|
G|--------7---7-7---7---4----------------------------------------------------|     x3
D|---------------------------------------------------------------------------|
A|--------5---5-5---5---2----------------------------------------------------|
E|---------------------------------------------------------------------------|

e|---------------------------------------------------------------------------|
B|---------------------------------------------------------------------------|
G|---------------------------------------------------------------------------|
D|--------9---7-----5-5------------------------------------------------------|
A|---------------------------------------------------------------------------|
E|--------7---5-----3-3------------------------------------------------------|


Verse:

e|---------------------------------------------------------------------------|
B|---------------------------------------------------------------------------|
G|----------------------------0----------------------------------------------|
D|------------0-----------2-------2------------------------------------------|
A|--------2-------2---0h3----------------------------------------------------|
E|----3----------------------------------------------------------------------|

Chorus:

e|----3-------3---3-3---3-3-----3-3-3-3-3-3-------3---3-3---3-3-----3-3-3-3-3---|
B|----3-------3---3-3---3-3-----3-3-3-3-3-3-------3---3-3---3-3-----3-3-3-3-3---|
G|----0-------0---0-0---0-0-----0-0-0-0-0-0-------0---0-0---0-0-----0-0-0-0-0---|
D|----0-------0---0-0---0-0-----0-0-0-0-0-2-------2---2-2---2-2-----2-2-2-2-2---|
A|----2-------2---2-2---2-2-----2-2-2-2-2-3-------3---3-3---3-3-----3-3-3-3-3---|
E|----3-------3---3-3---3-3-----3-3-3-3-3---------------------------------------|

e|----3-------3---3-3---3-3-----3-3-3-3-3-3-------3---3-3-----------------------|
B|----3-------3---3-3---3-3-----3-3-3-3-3-3-------3---3-3-----------------------|
G|----0-------0---0-0---0-0-----0-0-0-0-0-0-------0---0-0-----------------------|
D|----0-------0---0-0---0-0-----0-0-0-0-0-2-------2---2-2-----------------------|
A|----2-------2---2-2---2-2-----2-2-2-2-2-3-------3---3-3-----------------------|
E|----3-------3---3-3---3-3-----3-3-3-3-3---------------------------------------|
                                                        (Hold)


Bridge:

e|----2-------2---x-x-3-------3---x-x----------------------------------------|
B|----3-------3---x-x-3-------3---x-x----------------------------------------|
G|----2-------2---x-x-0-------0---x-x----------------------------------------|
D|----0-------0---x-x-2-------2---x-x----------------------------------------|
A|--------------------3-------3----------------------------------------------|
E|---------------------------------------------------------------------------|




Song Order:
Intro (Both Guitars) x2
Verse  x6
Chorus x1
Verse x10
Chorus x1
Verse x10
Chorus x1
Verse x2
Bridge x8
Verse x6
Chorus x1
End on G chord





Lyrics:


Verse 1:
Don't think it's creepy that I tried on all your clothes
Don't think it's creepy that I took your brother home
To say I found him
For you

Chorus 
Don't think it's creepy   x4
I know you do

Verse 2:
Don't think it's creepy that I mailed you a bird
Don't think it's creepy I hope it's not awkward
It was a test run 
For you

(Chorus)

Verse 3:
Don't think it's creepy that I use binoculars 
Don't think it's creepy the only room I see is yours
You won't believe it's
For you

Bridge:

I'd punch a bishop for you
I'd moon a werewolf for you
I'd grow a mustache for you
I'd burn my pants for you
I'd steal a baby for you
I'd shave my back for you
I'd hide a corpse for you
I'd write this song for you

Don't think it's creepy that I watch you when you sleep...
For you

Don't think it's creepy
Ok that's creepy
It's pretty creepy
I'd stop being creepy 
For you...

(Don't think it's creepy...)

Tap to rate this tab
# A B C D E F G H I J K L M N O P Q R S T U V W X Y Z