Song name
# A B C D E F G H I J K L M N O P Q R S T U V W X Y Z

Emc2 - Laser Beam Soup tab

Song: Laser Beam Soup
Artist: E=MC2
Album: What Do You Mean We Need An Album Title?
Year: 2011

Amazing song about nerdy love... rejection... and a touch of binary code...
What more could you want?
Enjoy...


Solo (Guitar 1):

e|---------------------------------------------------------------------------|
B|---------------------------------------------------------------------------|
G|----9-9-9-9----------------------------------------------------------------|     x3
D|----9-9-9-9-6-6-6-6-7-7-7-7-7-7-7-7----------------------------------------|
A|----7-7-7-7-6-6-6-6-7-7-7-7-7-7-7-7----------------------------------------|
E|------------4-4-4-4-5-5-5-5-5-5-5-5----------------------------------------|

e|---------------------------------------------------------------------------|
B|---------------------------------------------------------------------------|
G|---------------------------------------------------------------------------|
D|----4-4-4-4-4-4-4-4-7-7-7-7-7-7-7-7----------------------------------------|
A|----4-4-4-4-4-4-4-4-7-7-7-7-7-7-7-7----------------------------------------|
E|----2-2-2-2-2-2-2-2-5-5-5-5-5-5-5-5----------------------------------------|

Solo (Guitar 2):

e|----19--------17--16--14--16h17p16--14--14h16p14--12-----------------------|
B|---------------------------------------------------------------------------|
G|---------------------------------------------------------------------------|
D|---------------------------------------------------------------------------|
A|---------------------------------------------------------------------------|
E|---------------------------------------------------------------------------|

e|------4-4-7-7-9-9-4-4-5-4-0---0-0-0----------------------------------------|
B|---------------------------------------------------------------------------|
G|---------------------------------------------------------------------------|
D|---------------------------------------------------------------------------|
A|---------------------------------------------------------------------------|
E|---------------------------------------------------------------------------|

e|----11-12-14-16---14-16-17---16-17-19---17---16----------------------------|
B|---------------------------------------------------------------------------|
G|---------------------------------------------------------------------------|
D|---------------------------------------------------------------------------|
A|---------------------------------------------------------------------------|
E|---------------------------------------------------------------------------|

e|----7-9-7-5-5-7-5-4-4-5-4-2-2-4-2-0-0--------------------------------------|
B|---------------------------------------------------------------------------|
G|---------------------------------------------------------------------------|
D|---------------------------------------------------------------------------|
A|---------------------------------------------------------------------------|
E|---------------------------------------------------------------------------|

Riff:

e|---------------------------------------------------------------------------|
B|---------------------------------------------------------------------------|
G|------------2-2-2-2---------2-2-2-2---------2-2-2-2-4-4-4-4-4-4-4-4--------|
D|----2-2-2-2-2-2-2-2-2-2-2-2-2-2-2-2-2-2-2-2-2-2-2-2-4-4-4-4-4-4-4-4--------|
A|----2-2-2-2-0-0-0-0-2-2-2-2-0-0-0-0-2-2-2-2-0-0-0-0-2-2-2-2-2-2-2-2--------|
E|----0-0-0-0---------0-0-0-0---------0-0-0-0--------------------------------|


Verse:

e|---------------------------------------------------------------------------|
B|---------------------------------------------------------------------------|
G|--------------------2-2-2-2-2-2-2-2----------------------------------------|
D|----2-2-2-2-4-4-4-4-2-2-2-2-2-2-2-2----------------------------------------|
A|----2-2-2-2-4-4-4-4-0-0-0-0-0-0-0-0----------------------------------------|
E|----0-0-0-0-2-2-2-2--------------------------------------------------------|
Mute: * * * * * * * * * * * * * * * * 


Pre-Chorus:

e|---------------------------------------------------------------------------|
B|---------------------------------------------------------------------------|
G|----4-4-4-4-4-4-4-4-6-6-6-6-6-6-6-6-2-2-2-2-2-2-2-2-4-4-4-4-4-4-4-4--------|
D|----4-4-4-4-4-4-4-4-6-6-6-6-6-6-6-6-2-2-2-2-2-2-2-2-4-4-4-4-4-4-4-4--------|
A|----2-2-2-2-2-2-2-2-4-4-4-4-4-4-4-4-0-0-0-0-0-0-0-0-2-2-2-2-2-2-2-2--------|
E|---------------------------------------------------------------------------|
Mute: * * * * * * * * * * * * * * * * * * * *


Chorus:

e|---------------------------------------------------------------------------|
B|---------------------------------------------------------------------------|
G|----9-9-9-9----------------------------------------------------------------|     x3
D|----9-9-9-9-6-6-6-6-7-7-7-7-7-7-7-7----------------------------------------|
A|----7-7-7-7-6-6-6-6-7-7-7-7-7-7-7-7----------------------------------------|
E|------------4-4-4-4-5-5-5-5-5-5-5-5----------------------------------------|

e|---------------------------------------------------------------------------|
B|---------------------------------------------------------------------------|
G|---------------------------------------------------------------------------|
D|----4-4-4-4-4-4-4-4-7-7-7-7-7-7-7-7----------------------------------------|
A|----4-4-4-4-4-4-4-4-7-7-7-7-7-7-7-7----------------------------------------|
E|----2-2-2-2-2-2-2-2-5-5-5-5-5-5-5-5----------------------------------------|

Breakdown:

e|---------------------------------------------------------------------------|
B|---------------------------------------------------------------------------|
G|---------------------------------------------------------------------------|
D|----4-4-4-4-4-4-4-4-6-6-6-6-6-6-6-6-7-7-7-7-7-7-7-7-9-9-9-9-9-9-9-9--------|
A|----4-4-4-4-4-4-4-4-6-6-6-6-6-6-6-6-7-7-7-7-7-7-7-7-9-9-9-9-9-9-9-9--------|
E|----2-2-2-2-2-2-2-2-4-4-4-4-4-4-4-4-5-5-5-5-5-5-5-5-7-7-7-7-7-7-7-7--------|

e|---------------------------------------------------------------------------|
B|---------------------------------------------------------------------------|
G|----6-6-6-6-6-6-6-6-8-8-8-8-8-8-8-8-9-9-9-9-9-9-9-9-11\--------------------|
D|----6-6-6-6-6-6-6-6-8-8-8-8-8-8-8-8-9-9-9-9-9-9-9-9-11\--------------------|
A|----4-4-4-4-4-4-4-4-6-6-6-6-6-6-6-6-7-7-7-7-7-7-7-7-9-\--------------------|
E|---------------------------------------------------------------------------|


Bridge (Guitar 1):

e|---------------------------------------------------------------------------|
B|---------------------------------------------------------------------------|
G|--------------------2--------------------------------4---------------------|
D|----2---------------2---------------2----------------4---------------------|
A|----2---------------0---------------2----------------2---------------------|
E|----0-------------------------------0--------------------------------------|


Bridge (Guitar 2):

e|---------------------------------------------------------------------------|
B|---------------------------------------------------------------------------|
G|----11----13--------11----14---13---11----9-----6----11----9---------------|
D|---------------------------------------------------------------------------|
A|----9-----11--------9-----12---11---9-----7-----4----9-----7---------------|
E|---------------------------------------------------------------------------|


Outro:

e|---------------------------------------------------------------------------|
B|---------------------------------------------------------------------------|
G|----4-4-4-4-4-4-4-4-4\-----------------------------------------------------|
D|----4-4-4-4-4-4-4-4-4\--------------2--------------------------------------|
A|----2-2-2-2-2-2-2-2-2\--------------2--------------------------------------|
E|------------------------------------0--------------------------------------|




Song Order:
Solo (Both Guitars) x1
Riff x1
Verse x4
Pre-Chorus x1
Chorus x1
Riff x1
Verse x4
Pre-Chorus x1
Chorus x1
Riff x1
Breakdown x1
Chorus x1
Bridge x2
Chorus x1
Riff x1
Outro x1


Whoa Whoa Whoa

Verse 1:

I tell you that you're beautiful
You say I must not know many people
But you're smiling on the inside

I crack a joke guess I'm a geek
You say "I heard that one last week."
But you're laughing on the inside

Pre Chorus:

Life's a bowl of laser beam soup
It came to me in a dream
And now I know that it means

Chorus:

I less than 3 you 'til we die.  (You better believe it)
I want our love to be like pi. (It's never ending)
I'll never let you go.  (Like my Weezer albums)
You're the prettiest girl I've ever known

Whoa Whoa Whoa

Verse 2:

Took to you to a scary movie
You say you're not frightened easily
But you're shaking on the inside

I walked by without a word
And that's the way that you prefer
But you're crying on the inside

(Pre Chorus)

(Chorus)

Breakdown:

Dungeons and Dragons
Level 9 Paladin
Wish it were real
You could be my maiden
Strangest bands
We both like 
Maybe we'll see tonight
I'll love you always

(Chorus)

Bridge:

01001001 01101100
01101111 01110110 
01100101 01111001 
01101111 01110101  (Binary code for Iloveyou)

(Chorus)

Whoa Whoa Whoa

Whoawo
Tap to rate this tab
# A B C D E F G H I J K L M N O P Q R S T U V W X Y Z