Song name
# A B C D E F G H I J K L M N O P Q R S T U V W X Y Z

Emc2 - I Cant Play Live tab

Song: I Can't Play Live
Artist: E=MC2
Album: What Do You Mean We Need An Album Title?
Year: 2011

Extremely easy song...
I wish I was sleeping right now...
Enjoy...


Riff (Guitar 1):

e|--------3-------3-------3---------3----------------------------------------|
B|----------3-------3-------3-----3------------------------------------------|
G|---------------------------------------------------------------------------|
D|---------------------------------------------------------------------------|
A|---------------------------------------------------------------------------|
E|---------------------------------------------------------------------------|

Riff (Guitar 2):

e|---------------------------------------------------------------------------|
B|---------------------------------------------------------------------------|
G|------------x-5-5-5---------x-7-7-5----------------------------------------|
D|----5-5-5-5-x-5-5-5-5-5-5-5-x-7-7-5----------------------------------------|
A|----5-5-5-5-x-3-3-3-5-5-5-5-x-5-5-3----------------------------------------|
E|----3-3-3-3---------3-3-3-3------------------------------------------------|


Verse (Guitar 1):

e|--------3-------3-------3---------3----------------------------------------|
B|----------3-------3-------3-----3------------------------------------------|
G|---------------------------------------------------------------------------|     x4
D|---------------------------------------------------------------------------|
A|---------------------------------------------------------------------------|
E|---------------------------------------------------------------------------|

Verse (Guitar 2):

e|---------------------------------------------------------------------------|
B|---------------------------------------------------------------------------|
G|------------------------------------7-7-7-7-7-7-7-7-7-7-7-7-7-7-7-7--------|
D|----5-5-5-5-5-5-5-5-5-5-5-5-5-5-5-5-7-7-7-7-7-7-7-7-7-7-7-7-7-7-7-7--------|
A|----5-5-5-5-5-5-5-5-5-5-5-5-5-5-5-5-5-5-5-5-5-5-5-5-5-5-5-5-5-5-5-5--------|
E|----3-3-3-3-3-3-3-3-3-3-3-3-3-3-3-3----------------------------------------|
Mute: * * * * * * * * * * * * * * * * * * * * * * * * * * * * * * * * 

e|---------------------------------------------------------------------------|
B|---------------------------------------------------------------------------|
G|----9-9-9-9-9-9-9-9-9-9-9-9-9-9-9-9-5-5-5-5-5-5-5-5-5-5-5-5-5-5-5-5--------|
D|----9-9-9-9-9-9-9-9-9-9-9-9-9-9-9-9-5-5-5-5-5-5-5-5-5-5-5-5-5-5-5-5--------|
A|----7-7-7-7-7-7-7-7-7-7-7-7-7-7-7-7-3-3-3-3-3-3-3-3-3-3-3-3-3-3-3-3--------|
E|---------------------------------------------------------------------------|
Mute: * * * * * * * * * * * * * * * * * * * * * * * * * * * * *  


Chorus:

e|---------------------------------------------------------------------------|
B|---------------------------------------------------------------------------|
G|------------------------------------7-7-7-7-7-7-7-7-7-7-7-7-7-7-7-7--------|
D|----5-5-5-5-5-5-5-5-5-5-5-5-5-5-5-5-7-7-7-7-7-7-7-7-7-7-7-7-7-7-7-7--------|
A|----5-5-5-5-5-5-5-5-5-5-5-5-5-5-5-5-5-5-5-5-5-5-5-5-5-5-5-5-5-5-5-5--------|
E|----3-3-3-3-3-3-3-3-3-3-3-3-3-3-3-3----------------------------------------|


e|---------------------------------------------------------------------------|
B|---------------------------------------------------------------------------|
G|----9-9-9-9-9-9-9-9-9-9-9-9-9-9-9-9-5-5-5-5-5-5-5-5-5-5-5-5-5-5-5-5--------|
D|----9-9-9-9-9-9-9-9-9-9-9-9-9-9-9-9-5-5-5-5-5-5-5-5-5-5-5-5-5-5-5-5--------|
A|----7-7-7-7-7-7-7-7-7-7-7-7-7-7-7-7-3-3-3-3-3-3-3-3-3-3-3-3-3-3-3-3--------|
E|---------------------------------------------------------------------------|

e|---------------------------------------------------------------------------|
B|---------------------------------------------------------------------------|
G|------------------------------------7-7-7-7-7-7-7-7-7-7-7-7-7-7-7-7--------|
D|----5-5-5-5-5-5-5-5-5-5-5-5-5-5-5-5-7-7-7-7-7-7-7-7-7-7-7-7-7-7-7-7--------|
A|----5-5-5-5-5-5-5-5-5-5-5-5-5-5-5-5-5-5-5-5-5-5-5-5-5-5-5-5-5-5-5-5--------|
E|----3-3-3-3-3-3-3-3-3-3-3-3-3-3-3-3----------------------------------------|


e|---------------------------------------------------------------------------|
B|---------------------------------------------------------------------------|
G|----9-9-9-9-9-9-9-9-9-9-9-9-9-9-9-9-5--------------------------------------|
D|----9-9-9-9-9-9-9-9-9-9-9-9-9-9-9-9-5--------------------------------------|
A|----7-7-7-7-7-7-7-7-7-7-7-7-7-7-7-7-3--------------------------------------|
E|---------------------------------------------------------------------------|


e|---------------------------------------------------------------------------|
B|---------------------------------------------------------------------------|
G|------------------------------------7-7-7-7-7-7-7-7-7-7-7-7-7-7-7-7--------|
D|----5-5-5-5-5-5-5-5-5-5-5-5-5-5-5-5-7-7-7-7-7-7-7-7-7-7-7-7-7-7-7-7--------|
A|----5-5-5-5-5-5-5-5-5-5-5-5-5-5-5-5-5-5-5-5-5-5-5-5-5-5-5-5-5-5-5-5--------|
E|----3-3-3-3-3-3-3-3-3-3-3-3-3-3-3-3----------------------------------------|

e|---------------------------------------------------------------------------|
B|---------------------------------------------------------------------------|
G|----9-9-9-9-9-9-9-9-9-9-9-9-9-9-9-9-5-5-5-5-5-5-5-5-5----------------------|
D|----9-9-9-9-9-9-9-9-9-9-9-9-9-9-9-9-5-5-5-5-5-5-5-5-5----------------------|
A|----7-7-7-7-7-7-7-7-7-7-7-7-7-7-7-7-3-3-3-3-3-3-3-3-3----------------------|
E|---------------------------------------------------------------------------|


Solo (Guitar 1):

e|---------------------------------------------------------------------------|
B|---------------------------------------------------------------------------|
G|------------------------------------7-7-7-7-7-7-7-7-7-7-7-7-7-7-7-7--------|     x2
D|----5-5-5-5-5-5-5-5-5-5-5-5-5-5-5-5-7-7-7-7-7-7-7-7-7-7-7-7-7-7-7-7--------|
A|----5-5-5-5-5-5-5-5-5-5-5-5-5-5-5-5-5-5-5-5-5-5-5-5-5-5-5-5-5-5-5-5--------|
E|----3-3-3-3-3-3-3-3-3-3-3-3-3-3-3-3----------------------------------------|


e|---------------------------------------------------------------------------|
B|---------------------------------------------------------------------------|
G|----9-9-9-9-9-9-9-9-9-9-9-9-9-9-9-9-5-5-5-5-5-5-5-5-5-5-5-5-5-5-5-5--------|
D|----9-9-9-9-9-9-9-9-9-9-9-9-9-9-9-9-5-5-5-5-5-5-5-5-5-5-5-5-5-5-5-5--------|
A|----7-7-7-7-7-7-7-7-7-7-7-7-7-7-7-7-3-3-3-3-3-3-3-3-3-3-3-3-3-3-3-3--------|
E|---------------------------------------------------------------------------|

Solo (Guitar 2):

e|------------------------------------3-----2-----3---5-3---2---0------------|
B|----------------0-1---0-1---3----------------------------------------------|
G|------------0h2------------------------------------------------------------|
D|---------------------------------------------------------------------------|
A|---------------------------------------------------------------------------|
E|---------------------------------------------------------------------------|

e|------------------------------------------------------3---2---0------------|
B|----3-1---0---------------0---------3-1---3---1---3------------------------|
G|--------------2---0---2-------2--------------------------------------------|
D|---------------------------------------------------------------------------|
A|---------------------------------------------------------------------------|
E|---------------------------------------------------------------------------|

e|----5-3---5---7---5---7---8---7-----10----8-----7-12----10----8------------|
B|---------------------------------------------------------------------------|
G|---------------------------------------------------------------------------|
D|---------------------------------------------------------------------------|
A|---------------------------------------------------------------------------|
E|---------------------------------------------------------------------------|

e|----14h15-15----14--12--10--8---7---5-----3-----3--------------------------|
B|---------------------------------------------------------------------------|
G|---------------------------------------------------------------------------|
D|---------------------------------------------------------------------------|
A|---------------------------------------------------------------------------|
E|---------------------------------------------------------------------------|

Outro:

e|---------------------------------------------------------------------------|
B|---------------------------------------------------------------------------|
G|----5-5-5-5-5-5-5-5-5---------------5-5-5-5-5-5-5-5-5-5-5-5-5-5-5-5--------|
D|----5-5-5-5-5-5-5-5-5---------------5-5-5-5-5-5-5-5-5-5-5-5-5-5-5-5-5------|
A|----3-3-3-3-3-3-3-3-3---------------3-3-3-3-3-3-3-3-3-3-3-3-3-3-3-3-5------|
E|--------------------------------------------------------------------3------|



Song Order:
Riff (Both Guitars) x4
Verse (Both Guitars) x4
Chorus x1
Riff (Both Guitars) x4
Verse (Both Guitars) x4
Chorus x1
Riff (Both Guitars) x2
Solo (Both Guitars) x1
Chorus x1
Outro x1


Lyrics:

Verse:
Wrote a song about the girl
From across the room
Told her that I love her
In the most elegant way

Went outside her window 
And I took out my guitar
I played her the song
But all the words came out wrong

I ended up telling her
That I wanted to lick her elbows
And make-out 
With her beautiful cat

So I got a restraining order
So I guess it's not all bad
I can still make it up to her
Cause I can play this song from 20 feet away


Chorus:
I can't play live
But don't hold it against me
Unless it's your body
Then go ahead baby touch me

I hope you understood that last line
I think I said it backwards
And told you I wanna love a starfish

But I wouldn't do that
Unless the starfish was you
But now I'm rambling on and on and on
And now I'm glad that this is the end of the chorus
 
Verse:
So I went to try again
Wrote her another song
Making fun of the first time
That I messed up

So I followed her into the bathroom
And I took out my guitar
She thought it was the radio, stereo
The way you move ain't fair you know

Oh crap!
I think just had a copyright infringement
Oh well maybe Train won't even notice me
Just like she has for 3 whole years

Anyway, this song is what I played
And she liked it so much
'Til found out it was me
Now I have to win her heart from 50 more feet away

(Chorus)

Guitar Solo!

I can't play live
But don't hold it against me
Unless it's your body
Then go ahead baby touch me

I hope you understood that last line
I think I said it backwards
And told you I wanna love a starfish

But I wouldn't do that
Unless the starfish was you
But now I'm rambling on and on and on
And now I'm glad that this is the end of the
Now I'm glad that this is the end of the
Now I'm glad that this is the end of the song





Tap to rate this tab
# A B C D E F G H I J K L M N O P Q R S T U V W X Y Z