Song name
# A B C D E F G H I J K L M N O P Q R S T U V W X Y Z

Emeli Sande - Suitcase tab

-----------------------------------------------------------------------------
                             Suitcase - Emeli Sande
-----------------------------------------------------------------------------
Tabbed by:Robert Parks
Email:robertparks@hotmail.co.uk

As there is no other tab on the internet for this song this tab has been created 
by ear so i don't expect it to be perfect. But this is a great little riff 
and i hope you enjoy playing it.

Tuning: EADGBe

e|--------------------------------------|----------------------------------|
B|-----------------5-----------5h7p5----|--------------5--------------7p5--|
G|------------4h6--------4h6----------6-|---------4h6------------4h6------6|
D|--------------------------------------|----------------------------------|
A|--------------------------------------|-----4--------------4-------------|
E|-------0------------0-----------------|----------------------------------|

e|--------------------------------------|----------------------------------|
B|----------------5------------5h7p5----|----------------------------------|
G|------------4h6--------4h6----------6-|---4h6p4--------------------------|
D|--------------------------------------|----------6--4--6--4--------4-----|
A|-------0-------------0----------------|---------------------4--6-----6--4|
E|--------------------------------------|-0--------------------------------|
Tap to rate this tab
# A B C D E F G H I J K L M N O P Q R S T U V W X Y Z