Song name
# A B C D E F G H I J K L M N O P Q R S T U V W X Y Z

Emeli Sande - Next To Me Acoustic tab

This is the live acoustic version from BBC Radio 1 Live Lounge
(see here: http://www.youtube.com/watch?v=YkYlX1v1n8E)

Capo: 5 (Chords are relative to capo)

Verse:
   X     X     X     X      X     X     X     X     
   Em                D/F#   G
e|-0--------0-------------|------------------------|
B|-------0-----0-----3----|-0--------0-------------|
G|----0-----------0-----0-|-------0----------------|
D|------------------------|----0-------------------|  X 3
A|------------------------|------------------------|
E|-0--------0--------2----|-3--------3-------------|

You won't find him drinking at the table
Rolling dice and staying out til three
You won't ever find him being unfaithful


   X     X     X     X      X     X     X     X  
   Csus2             D/F#   G
e|------------------------|------------------------|
B|----------3--------3----|-2----------------------|
G|-------0-----------2----|-0----------------------| x 1
D|----2--------------0----|-0----------------------|
A|-------------------0----|-2----------------------|
E|-0-----------------2----|-3----------------------|

You will find you will find him next to me

Chorus: (This is strummed)

Csus2      D/F# G
Next to me oooh oooh
Csus2      D/F# G
Next to me oooh oooh
Csus2      D/F# G
Next to me oooh oooh
Csus2                             D/F#    G
You will find him you'll find him next to me


The rest of the song is pretty similar with only minor variations
in picking.

Cheers
Andy
Tap to rate this tab
 
# A B C D E F G H I J K L M N O P Q R S T U V W X Y Z