Song name
# A B C D E F G H I J K L M N O P Q R S T U V W X Y Z

Emeli Sande - Suitcase tab

Suitcase - Emeli Sandť
Album: Our Version of Events

     Learned this by ear and it sounds perfect I think. Give it a few playthroughs 
and youíll get the hang of it. This riff plays through the whole song I think. 



e|-------------------------------------------------------------------------|
B|-------------------------------------------------------------------------|
G|-----------9-----------9h11p9--------------------------------9h11(p9)----|
D|------9h11--------9h11---------11p9----------9h11-------9h11----------11-|
A|-------------------------------------------------------------------------|
E|---0-----------0--------------------------9*----------9------------------|
                                                                                        
*This note (9th fret, E) fits in well if you use your thumb to fret it. 

e|-------------------------------------------------------------------------|
B|-------------------------------------------------------------------------|
G|-----------9-----------9h11p9--------------------------------------------|
D|------9h11--------9h11---------11p9--------------------------------------|
A|---0-----------0---------------------------------------------------------|
E|-------------------------------------------------------------------------|
    


e|-------------------------------------------------------------------------|
B|-------------------------------------------------------------------------|
G|------9------------------------------------------------------------------|
D|------9h11-9-------------------------------------------------------------|
A|-------------11--9h11-9------7h9p9---------------------------------------|
E|---0---------------------7h9--------9p7----------------------------------|



Thatís it then. Itís really easy and I hope you enjoy playing it. You can use the 
notes to construct a chord progression of E, C#m, A, E. 
-Mark
Tap to rate this tab
# A B C D E F G H I J K L M N O P Q R S T U V W X Y Z