Song name
# A B C D E F G H I J K L M N O P Q R S T U V W X Y Z

Emeli Sande - Read All About It Part Iii tab

Tuning: Standard tuning (E A D G B E)

Capo : 2nd fret.

Chord Sequence:
Am
Fmaj7
C
G

This may not be perfect, but I haven't been able to find any
tabs that do a fingerstyle version of this song, so I made this,
feel free to make improvements and play around with the
tabs given.

The chord sequence can be played like this all the way
through:
E------------------------------------------------------------|
a---0-----------0-----------------0----0---------------------|
d--------2-----------------2----------------3-----3----------|
g-----------2-----------------2----------------2-------------|
b---1----------------1-----------------1---------------------|
e--------------------------------------------------------0---|

E-----------------------------------------------------------|
a----------------3------------3--------------3---2----------|
d-----------3--------2---------------2---------------0------|
g---2--------------------0---------------0------------------|
b-------1--------1---------------------------------------3--|
e----------------------------------0-------------3----------|

E------------------------------|
a---2--------------------------|
d--------------0-----0---------|
g------------------0-----------|
b------------------------------|
e--------3---------------------|

If you don't want to play the above tabs all
the way through, you could play the chords
 in the chorus like this:

         Am.       Fmaj7
I wanna sing, I wanna shout,
              C.                 G
I wanna scream till the words dry out,
                Am.                 Fmaj7
So put it in all of the papers, I'm not afraid,
                C.                G
They can read all about it, read all about it.

I hope this helps, but like I said, feel free to make
 any corrections as I did this by ear and I am not
sure if it 100% :)
Tap to rate this tab
# A B C D E F G H I J K L M N O P Q R S T U V W X Y Z