Song name
# A B C D E F G H I J K L M N O P Q R S T U V W X Y Z

Emerson Hart - Generation tab

#----------------------------------PLEASE NOTE--------------------------------#
#This file is the author's own work and represents their interpretation of the#
#song. You may only use this file for private study, scholarship, or research.#
#-----------------------------------------------------------------------------#
#-- File created with Instab - http://www.pconline.com/~smcarey/instab.html --#
#-----------------------------------------------------------------------------#

Author/Artist: Army Of Anyone
Title: Generation
Transcribed by: Saverain
b bend
r release bend
/ slide up
/slide down
d strum down
u strum up
m mute

Standard Tuning

------|-------------|--|------------------------------------------------------|
------|-------------|--|------------------------------------------------------|
------|-7/9----9/14-|--|------------------------------------------------------|
------|-------------|--|------------------------------------------------------|
------|-------------|--|------------------------------------------------------|
------|-------------|--|------------------------------------------------------|
        Background G3 G4 (Intro and verse pt 2)

------|------------------------------|--|---------------------------------|---|
------|------------------------------|--|---------------------------------|---|
------|------------------------------|--|---------------------------------|---|
------|-2-2-2--2-2--2-2-2------------|--|-2-2-2--2-2----------------------|---|
------|-2-2-2--2-2--2-2-2--5-5-x-x-x-|--|-2-2-2--2-2----------------------|---|
------|-0-0-0--0-0--0-0-0--3-3-5-5-5-|--|-0-0-0--0-0---0-7-10-7-6-5-3-5-0-|---|
 G1 G2  d u dm d um u d um u d u d u                   G2 in middle of verse

-------|------------------------------|---------------------------------------|
-------|-3-3-3--3-3--3---3--3-3-3-3---|---------------------------------------|
-------|-4-4-4--4-4--4---4--4-4-4-4---|---------------------------------------|
-------|-2-2-2--2-2--2---2--2-2-2-2---|---------------------------------------|
-------|------------------------------|---------------------------------------|
-------|------------------------------|---------------------------------------|
  G2 Verse Pt.2

-------|-0-0-0-0-|--|-0-0-0-0-|--|-0-0-0-0-|--|--------5-------|--------------|
-------|-x-x-x-x-|--|-x-x-x-x-|--|-x-x-x-x-|--|---5------------|--------------|
-------|-5-5-5-5-|--|-2-2-2-2-|--|-5-5-5-5-|--|-4---4----------|--------------|
-------|-5-5-5-5-|--|-2-2-2-2-|--|-5-5-5-5-|--|----------------|--------------|
-------|-3-3-3-3-|--|-0-0-0-0-|--|-3-3-3-3-|--|----------------|--------------|
-------|---------|--|---------|--|---------|--|----------------|--------------|
  Interlude                        Ending>>>>>>>>>>>>>>>>

-----------|-----------------------------|------------------------------------|
-----------|-----------------------------|------------------------------------|
-----------|-----------------------------|------------------------------------|
-----------|-----------------------------|------------------------------------|
-----------|-------5--7--5--7--7-7-5-5-5-|------------------------------------|
-----------|-0-3-5-0--0--0--0--5-5-3-3-3-|------------------------------------|
   Chorus    d u d u  u  u  u  u d u d u

-------|----------------------------------------------------------------------|
-------|----------------------------------------------------------------------|
-------|-7/9-9/11-11/12vvv---7/9-9/14vvv---18/19-19--18-18--16-16--14-14--16--|
-------|----------------------------------------------------------------------|
-------|----------------------------------------------------------------------|
---15\-|----------------------------------------------------------------------|
      Solo

------------------------------------------------------------------------------|
--------------------------------------16-17-18/21-18/21--16-17-17/21-16-17-18-|
-14-14-16-12----16-14-14-16-12br-12/------------------------------------------|
-------------14---------------------------------------------------------------|
------------------------------------------------------------------------------|
------------------------------------------------------------------------------|


---------------------------16b17--r16---|-------------------------------------|
-/21-18/21--16-17-16b/-18---------------|-------------------------------------|
----------------------------------------|-------------------------------------|
----------------------------------------|-------------------------------------|
----------------------------------------|-------------------------------------|
----------------------------------------|-------------------------------------|


-------|--------------------------------|-------------------------------------|
-------|--------------------------------|-------------------------------------|
-------|--------------------------------|-------------------------------------|
-------|-----------------------------2\-|-------------------------------------|
-------|-------5--7--5--7------5-5-5-2\-|-------------------------------------|
-------|-0-3-5-0--0--0--0--5br-3-3-3-0--|-------------------------------------|
   Out                                 m
Tap to rate this tab
# A B C D E F G H I J K L M N O P Q R S T U V W X Y Z