Song name
# A B C D E F G H I J K L M N O P Q R S T U V W X Y Z

Emerson Hart - Flyin tab

Tabbed & Arranged by: Josh Daley

Tuning: E A D G B E (Standard) - Capo 2



Intro, Interlude & Bridge:

--0-------0-------|
--1-------1-------|
--0^2--^2-0-------|
--3-------0^2--^2-|
--3-------3-------|
------------------|



1st Verse:

--0----0----0----0----0---0-|
--1----1----1----1----1---1-|
--0^2--0----0^2--2----0^2^0-|
--3----2----3----2----2---2-|
--3----3----3----0----------|
-------3--------------------|

--0----0----0----0--0--0--|
--1----1----1----1--1--1--|
--0^2--0----0^2--2--2--2--|
--3----2----3----2--2--0--|
--3----3----3----0--0--0--|
-------3------------3--2--|



Chorus:

--0----0----0----0--0--|
--1----1----1----1--1--|
--0^2--0----0^2--2--2--|
--3----2----3----2--2--|
--3----3----3----0--0--|
-------3------------3--|

--0----0--0--0----|
--1----1--1--1----|
--0^2--0--0--2----|
--3----2--0--0----|
--3----3--2--0----|
-------3-----2----|



2nd Verse:

--0----0----0----0--0--|
--1----1----1----1--1--|
--0^2--0----0^2--2--2--|
--3----2----3----2--2--|
--3----3----3----0--0--|
-------3------------3--|

--0----0----0----0--0--0--|
--1----1----1----1--1--1--|
--0^2--0----0^2--2--2--2--|
--3----2----3----2--2--0--|
--3----3----3----0--0--0--|
-------3------------3--2--|



End of bridge:

--0---------0--0--0----|
--1---------1--1--1----|
--0^2---^2--2--2--2----|
--3---------2--2--0----|
--3---------0--0--0----|
---------------3--2----|



Outro:

--0----0----0----0----|
--1----1----1----1----|
--0^2--0----0^2--0----| (Let Ring)
--3----2----3----2----|
--3----3----3----3----|
-------3---------3----|
Tap to rate this tab
# A B C D E F G H I J K L M N O P Q R S T U V W X Y Z