Song name
# A B C D E F G H I J K L M N O P Q R S T U V W X Y Z

Emerson Hart - Devastation Hands tab

From the CD Cigarettes and Gasoline 2007
Tabbed by BOB

CAPO ON 6TH FRET


E|-------------------------------------3---3-3-3-----|
B|---1-—1--1--1--1--1--1-----1-1-1-1-------1-1-0-----|
G|---2—-2--2--0--0--0--0-----0-0-0-0-------0-0-0-----|
D|---3—-3--3--0--2--2--2-----0-0H2p0-------0-0-0-----|
A|---3—-3--3--3--3--3--3-----3-3-3-3-----------------|
E|-------------------------------------3-------------|
  You got your pieces and you got your pawns
  

E|-0------------------------3------------------------|
B|-1------------------------0------------------------|
G|-2------------------------0------------------------|
D|-2------------------------0------------------------|
A|-0------------------------x------------------------|
E|--------------------------3------------------------|
   only you would ever know again


E|------------3------------------------3--------------|
B|-1-1--1-1-1-0-------------1-1--1-1-1-0--------------|
G|-2-0--2-0-0-0-------------2-0--2-0-0-0--------------|
D|-3-2--3-0-2-0-------------3-2--3-0-2-0--------------|
A|-3-3--3-3-3-x-------------3-3--3-3-3-x--------------|
E|------------3------------------------3--------------|
               I know what              what you need                  

E|---------0-----------0----------3-------------------|
B|---------1-----------1----------0-------------------|
G|---------2-----------2----------0-------------------|
D|---------2-----------3----------0-------------------|
A|---------0-----------3----------x-------------------|
E|--------------------------------3-------------------|
   You need someone to help you tonight


E|----------------------------------------------------|
B|------1--------------1----------1---------1---------|
G|----2---2----------0---0------0---0-----0---0-------|
D|--2--------------0----------------------------------|
A|----------------------------3---------2-------------|
E|----------------------------------------------------|
  Only when you’re here can I feel like this


E|----------------------------------------------------|
B|-----------1-3-1---1--------------1-3-1---1---------|
G|---------0-------0--------------0-------0-----------|
D|----------------------------------------------------|
A|----------------------------------------------------|
E|-------3----------------------3---------------------|
  When I put my arms around you
Tap to rate this tab
 
# A B C D E F G H I J K L M N O P Q R S T U V W X Y Z