Song name
# A B C D E F G H I J K L M N O P Q R S T U V W X Y Z

Emerson Lake And Palmer - Take A Pebble tab

-------------------------------------------------------------------------------
			     TAKE A PEBBLE - Emerson Lake & Palmer
-------------------------------------------------------------------------------
Tabbed by: Viktor L.
E-mail: viktorL@hotmail.fr

***This tab is of the instrumental part in the middle of the song***

I wasn't satisfied with the existing tabs of this great song so I made my own, and after 
listens and re-listens, I believe this is an accurate transcription.

Nonetheless, all credit to Greg Lake whose reputation as a great guitarist remains 
in spite of Emerson's keyboard, through songs like this one...

Enjoy

Tuning: Drop D (DADGBE)

*******************************************************

<>: Natural harmonic
b: bend
r: return
/: slide up
\: slide down
~: vibrato
h, p: Hammer-on, pull-off

 |--------N.H.--------------------------------|
e|-------------------<12>-----------14~~~~~---|
B|--------------<12>--------------------------|
G|--------------------------------------------|
D|-----<12>-<7>-------------------------------|
A|--------------------------------------------|
D|<12>----------------------------------------|

e|---------------------------------------|
B|---------------------------------------|
G|-------14-11-9-7-9-7-9-7-9/11----------|
D|---------------------------------------|
A|0--------------------------------------|
D|0--------------------------------------|

e|---------------------------------------|
B|---------------------------------------|
G|-11b12r11--9-11-7------7-7-7--/14~~----|
D|---------------------------------------|
A|---------------------------------------|
D|---------------------------------------|

e|10-10--14b15r14------------------------|
B|----------------15~~-------------------|
G|---------------------------------------|
D|---------------------------------------|
A|---------------------------------------|
D|---------------------------------------|

e|10-7-5-2-------------2--3--5--10-------|
B|7--5-3-3-------------3--5--7--7--------|
G|7--------------------2--2--7--7--------|
D|0-----------------------------0--------|
A|0--------------------------------------|
D|0---------------0----------------------|

e|----2---3---5---10-----7---------------|
B|----3---5---7---7------5-----10--------|
G|----------------------------7----------|
D|0--------------------------------------|
A|0--------------------------------------|
D|0--------------------------------------|

e|----------10-12-10---------------------|
B|----10-12----------12-10---------8-7---|
G|-11----------------------11-9-11-------|
D|---------------------------------------|
A|---------------------------------------|
D|---------------------------------------|

e|---------------------------------------|
B|-------------------------------3-------|
G|----------------4--------------2-------|
D|0-------------7---7------------0-------|
A|0---------5-7-------7------------------|
D|0-----7-9-------------2b3r2-0----------|

e|---------------------------------------------------|
B|------------------------0--------------------------|
G|----------------------2---2------------------------|
D|-----0-2-0--------0-2----------0----0-2-0----0-2-0-|
A|-0-2----------0-2----------------------------------|
D|---------------------------------------------------|

e|--------------------5-7-10-7-5-7-10----|
B|----------3-------7--------------------|
G|----------2----------------------------|
D|----------0----------------------------|
A|---------------------------------------|
D|-2b3r2-0-------------------------------|


|Mute after picked----|    |soft>>>to>>>hard|

e|-12----14----17----14----17-17-17-17-17-|
B|----------------------------------------|
G|----------------------------------------|
D|----------------------------------------|
A|----------------------------------------|
D|----------------------------------------|


                        |let note sound before slide

e|-14----14-14-12----12-12-\10-10-|
B|--------------------------------|
G|--------------------------------|
D|--------------------------------|
A|--------------------------------|
D|--------------------------------|


                              |mute this note immediately after picked

e|---------------------------------------|
B|-----10-10-10\7--7-7-7\5--5-5--3-3-----|
G|---------------------------------------|
D|--0------------------------------------|
A|--0------------------------------------|
D|--0------------------------------------|

                                >
e|-----------5---------------------------5-------5-5/7-7/10----|
B|-------5-7---7-5---5-7-5-----------5-7---7-5-7---------------|
G|-----7-----------7-------7-7-----7---------------------------|
D|-0----------------------------0------------------------------|
A|-0----------------------------0------------------------------|
D|-0----------------------------0------------------------------|


          >
e|-2---------------------------2-----2-----2-----2-------------2-----2-----2-2-------------|
B|-3---------------------------3-----3-----3-----3-------------3-----3-----3---------------|
G|-2----------2---2------------2-----2-----2-----2-------------2-----2-----2---------------|
D|-0------2-0---0---0---------(0)---(0)---(0)-0----2-0--------(0)---(0)-0------2-0---------|
A|-0--2-0-------------------------0-----2-------------------------2------------------------|
D|---------------------2b3r2-0-------------------------2b3r2-0---------------------2b3r2-0-|


     >     >     >     >     >     >
e|-2---2-2---2-2---2-2---2-2---2-2---2-2----------------|
B|-3---3-----3-----3-----3---0-3-----3--------3---------|
G|-2---2-----2-----2---2-----------2----------2---------|
D|(0)-(0)--0-----2----------------------------0---------|
A|---2--------------------------------------------------|
D|----------------------------------------2b3---2b3r2-0-|

e|-2-----2-----2-2--------------------2-|
B|-3-----3-----3-3--------------------3-|
G|-2-----2-----2----------------------2-|
D|(0)-0-(0)---(0)---------0----------(0)|
A|--------------------------------------|
D|----------0--------2b3-----2b3r2-0----|

e|----2-----2-2------------------2-----2-----2-------------------2----2-|
B|----3-----3-3------------------3-----3-----3-------------------3----3-|
G|----2-----2--------------------2-----2-----2-------------------2----2-|
D|---(0)---(0)-------0----------(0)---(0)---(0)------0----------(0)--(0)|
A|----------------------------------------------------------------------|
D|-0-----0------2b3-----2b3r2-0-----0-----0-----2b3-----2b3r2-0-----0---|

e|----2-----2-----2-----2-----2-----2-------------|
B|----3-----3-----3-----3-----3-----3-------------|
G|----2-----2-----2-----2-----2-----2-------------|
D|-0-----------------------0----------------------|
A|-------0-----------0-----------0----------------|
D|-------------0-----------------------0----------|


                   |fast|

e|------------------------------------10~~~~-----|
B|-----10p7---------10p7-------10p7--------------|
G|-----------------------------------------------|
D|-----------------------------------------------|
A|-----------------------------------------------|
D|-----------------------------------------------|

e|-10--10--10--10--7--7--7--5--5/7\5--------|
B|-7---7---7---7---5--5--5--3--3/5\3--------|
G|-7----------------------------------------|
D|-0----------------------------------------|
A|-0----------------------------------------|
D|-0----------------------------------------|

e|-------2-----------2-----------3-----------3-----------5------|
B|-----3---3-------3---3-------5---5-------5---5-------7---7----|
G|---2-------2---2-------2---2-------2---2-------2---7-------7--|
D|-0-----------0-----------0-----------0-----------0-----------0|
A|--------------------------------------------------------------|
D|--------------------------------------------------------------|

e|------5-----------7-----------0-----------10------|
B|----7---7-------8---8-------8---8-------7----7----|
G|--7-------7---7-------7---7-------7---7--------7--|
D|0-----------0-----------0-----------0------------0|
A|--------------------------------------------------|
D|--------------------------------------------------|

e|------10-------------12---------------12--------|
B|----7----7--------10----10---------10----10-----|
G|--7--------7---12----------12---12----------12--|
D|0------------0----------------0----------------0|
A|------------------------------------------------|
D|------------------------------------------------|

  >      >
e|14-----14-------------14----------|
B|10-----10------------10-----------|
G|11-----11-----------11------------|
D|0------0-----------0--------------|
A|0------0----------0---------------|
D|0------0---------0----------------|

 |--------N.H.-------------------------------|
e|------------------<12>-----------14~~~~~---|
B|-------------<12>--------------------------|
G|-------------------------------------------|
D|----<12>-<7>-------------------------------|
A|-------------------------------------------|
D|<12>---------------------------------------|
Tap to rate this tab
 
# A B C D E F G H I J K L M N O P Q R S T U V W X Y Z