Song name
# A B C D E F G H I J K L M N O P Q R S T U V W X Y Z

Emerson Lake And Palmer - Form The Beginning tab

Cancion: From The Begginning
Artista: ELP

empieza el solo:

2:17
|-----------------------------------|
|--5-7-7b8r7-5------------------8b10|
|-5-----------------5-7-7b8r7-5-----| 
|--------------7--7-----------------|
|0----------------------------------|
|-----------------------------------|

|----------------------------|
|-8b10-8---8b10-8---8b10-----|
|--------9--------9----------| 
|----------------------------|
|----------------------------|
|----------------------------|

|---------------------------------------|
|----------------------------------8b10-|
|-b8r7-5----------------5-7-7b8r7-5-----| 
|----------7p5h7--5-7--7----------------|
|---------------------------------------|
|---------------------------------------|

|--8-10b11r10-8b10--------8-10b11r10-8b10|
|10---------------------10---------------|
|----------------------------------------|
|----------------------------------------|
|----------------------------------------|
|----------------------------------------|

|-----------------------------------|
|---------------------8b10-8b10-8---|
|---5s4-----5-7b8r7-5---------------| 
|--5---5s7-7------------------------|
|-7---------------------------------|
|-----------------------------------|

|-----------------------------------|
|---------|-------|-----------------|
|-7b9r7-5-|-b10r9-|x8---------------| 
|---------|-------|---|------|------|
|---------------------|-7h8p7|-x?---|
|---------------------|------|------|

   
|---12*----7*-5*-------------------------|
|--12*----7*-5*--------------------------|
|-12*----7*-5*---------------------------|
|-------------------777777777777777\\----|
|----------------------------------------|
|----------------------------------------|
                    ...............palm muted
Tap to rate this tab
# A B C D E F G H I J K L M N O P Q R S T U V W X Y Z