Song name
# A B C D E F G H I J K L M N O P Q R S T U V W X Y Z

Emerson Lake And Palmer - Touch And Go chords

Tabbed by: tapsa91
Artist: Emerson, Lake & Palmer
Song: Touch and Go

Tuning: Standard (EADGBE)

Part.1 Synth(sawtooth)
e|-----5-6-------------------------------------------5-6-8-6-5-----------| 
B|---8--------6-4-3----------3-4-6-4-3-----6-4-----8-----------8-6-3-6-4-|
G|-5--------5-------5-3-5--5-----------5-3-----3-3-----------------------|
D|-----------------------------------------------------------------------|
A|-----------------------------------------------------------------------|
E|-----------------------------------------------------------------------|


e|---3-5-6---------------|
B|-6---------6-4-3-------|
G|---------5-------5-3-5-|
D|-----------------------|
A|-----------------------|
E|-----------------------|


Part.2
e|---10-12-13-15-13-12-10-8---10--10-12-13-15-17-15-13-15-12-| 
B|-8------------------------8--------------------------------|
G|-----------------------------------------------------------|
D|-----------------------------------------------------------|
A|-----------------------------------------------------------|
E|-----------------------------------------------------------|


e|-10-12-13-15-13-12-10-8---10--10-12-13-15-17-15-13-15-12-| 
B|------------------------8--------------------------------|
G|---------------------------------------------------------|
D|---------------------------------------------------------|
A|---------------------------------------------------------|
E|---------------------------------------------------------|


e|-11-13-15-13-20--11-13-15-13-9-8-| 
B|---------------------------------|
G|---------------------------------|
D|---------------------------------|
A|---------------------------------|
E|---------------------------------|

Tap to rate this tab
# A B C D E F G H I J K L M N O P Q R S T U V W X Y Z