Song name
# A B C D E F G H I J K L M N O P Q R S T U V W X Y Z

Emery - The Movie Song tab

Standard Tuning E,A,D,G,B,e

Verse 1

"I'm the guy..."
e:pm----------------------------------------------------------------------|
B:pm---------66666666------------------------66666666---------------------|
G:pm-555555555555555533333333555555555555555555555555333333334444444455(5)|
D:pm-555555553333333333333333555555555555555533333333333333334444444455(5)|
A:pm-33333333--------111111113333333333333333--------111111112222222233----|(3)
E:pm-----------------------------------------------------------------------|
           At The (4,4,2)and on no palm mute-------------------------------| "All Away..."

e:-------------------------------------------------------------------------|
B:----66666666------------------------66666666-----------------------------|
G:-555555555553333333355555555555555555555555533333333(4)-5-5-5-55---------|
D:-555333333333333333355555555555555553333333333333333(4)-5-5-5-556-6-6-66-|
A:-333--------111111113333333333333333--------11111111(2)-3-3-3-336-6-6-66-|
E:----------------------------------------------------------------4-4-4-44-|
    "Any thing for you..."
e:--------------------------------------------------------------------------|
B:--------------------------------------------------------------------------|
G:---------3-3-334-4-44----------3------------------------------------------|
D:-3-3-3-333-3-334-4-44-----1-3/5-5----66-6-66-6-66-6-66-633-3-33-3-33-3-33-|
A:-3-3-3-331-1-112-2-22-(3)3-----------66-6-66-6-66-6-66-633-3-33-3-33-3-33-|
E:-1-1-1-11----------------------------44-4-44-4-44-4-44-411-1-11-1-11-1-11-|

                        "on the brink..."
e:-----------------------pm-------------------------------------------------|
B:-----------------------pm--------66666666------------------------66666666-|
G:--33-3-33-344-4-44-45--pm555555555555555533333333555555555555555555555555-|
D:-333-3-33-344-4-44-45--pm555555553333333333333333555555555555555533333333-|
A:-311-1-11-122-2-22-23--pm33333333--------111111113333333333333333---------|
E:-1---------------------pm-------------------------------------------------|

                     "Its your face..."
e:------------------------------------------------------------------------|
B:--------------------------6-66-6----------------------6-66-6------------|
G:-33333333-55-5-555-5-55-5-5-55-5-3-33-3-4-44-4-5-55-5-5-55-5-3-33-3-----|(4)
D:-33333333-55-5-555-5-55-5-3-33-3-3-33-3-4-44-4-5-55-5-3-33-3-3-33-3-----|(4)
A:-11111111-22-2-222-3-33-3--------1-11-1-2-22-2-3-33-3--------1-11-1-----|(2)
E:------------------------------------------------------------------------|

e:------------------------------------------------------------------------|
B:------------------------------------------------------------------------|
G:-(5)-5-(5)-5-(5)-5-------------------------------------(3)-333333444444-|
D:-(5)-5-(5)-5-(5)-5-(6)-6-(6)-6-(6)-6-(3)-3-(3)-3-(3)-3-(3)-333333444444-|
A:-(3)-3-(3)-3-(3)-3-(6)-6-(6)-6-(6)-6-(3)-3-(3)-3-(3)-3-(1)-111111222222-|
E:-------------------(4)-4-(4)-4-(4)-4-(1)-1-(1)-1-(1)-1------------------|

finish later.
Jackansell1@yahoo.com
Tap to rate this tab
# A B C D E F G H I J K L M N O P Q R S T U V W X Y Z