Song name
# A B C D E F G H I J K L M N O P Q R S T U V W X Y Z

Emery - Walls tab

Walls-Emery
this is in C#G#c#GBE tuning
for the most part, every - equals an 8th note, but it is not always the case. this is my
tab, so please email me your feedback at tdickey4288@yahoo.com this is a great song,
i hope you enjoy the tab.

Guitar 1

Intro- lightly in the backround
|------------0---------------0---------------0---0---0-------0---]
|-4--4--4-4-4-4---4--4--4-4-4-4---4--4--4-4-4-4---------4-4-4-4--]
|4--4--4---4---4-4--4--4---4---4-4--4--4---4---4---4---4---4---4-]
|----------------------------------------------------------------]   2x
|----------------------------------------------------------------]
|----------------------------------------------------------------]

Verse
|------------0---------------0---------------0---0---0-------0---]
|-4--4--4-4-4-4---4--4--4-4-4-4---4--4--4-4-4-4---------4-4-4-4--]
|4--4--4---4---4-4--4--4---4---4-4--4--4---4---4---4---4---4---4-]
|----------------------------------------------------------------]   2x
|----------------------------------------------------------------]
|----------------------------------------------------------------]

Pre-chorus
|---0-----0-----2-----4--]
|424-4-424-4-424-4-424-4-]
|------------------------]
|------------------------]
|------------------------]
|------------------------]

"Sometimes... it gets so hard to breath"
|--------0----------------------------------------]
|--------5----------------------------------------]
|--------4----------------------------------------]
|0-------0-------1010101010-1010101010-77777-77777]
|0---------------1010101010-1010101010-77777-77777]
|0---------------1010101010-1010101010-77777-77777]

               P.M.______________
|--------------------------------]
|--------------------------------]
|--------------------------------]
|x0------5-------3-33333333333333]
|x0------5-------3-33333333333333]
|x0------5-------3-33333333333333]

"These fights with your arms..." "...left beside..."
|----------------------------------]
|----------------------------------]
|----------------------------------]
|77------55------33------55--555---]
|77------55------33------55--555---]
|77------55------33------55--555---]

"Tear out these veins...""...That own my heart..."
This one is really sincipated, so play however you want to and it will sound good as
as you play the right notes. this is  how i usually play it.
|------------------------------------------------------------------]
|------------------------------------------------------------------]
|------------------------------------------------------------------]
|7-7-7-77-77-77775-5-5-55-55-55553-333--3330-------77-77-77-77-7777]
|7-7-7-77-77-77775-5-5-55-55-55553-333--3330-------77-77-77-77-7777]
|7-7-7-77-77-77775-5-5-55-55-55553-333--3330-------77-77-77-77-7777]

Verse
|------------0---------------0---------------0---0---0-------0---]
|-4--4--4-4-4-4---4--4--4-4-4-4---4--4--4-4-4-4---------4-4-4-4--]
|4--4--4---4---4-4--4--4---4---4-4--4--4---4---4---4---4---4---4-]
|----------------------------------------------------------------]   3x
|----------------------------------------------------------------]
|----------------------------------------------------------------]

Pre-chorus
|---0-----0-----2-----4--]
|424-4-424-4-424-4-424-4-]
|------------------------]
|------------------------]
|------------------------]
|------------------------]

"Sometimes... it gets so hard to breath"
|--------0----------------------------------------]
|--------5----------------------------------------]
|--------4----------------------------------------]
|0-------0-------1010101010-1010101010-77777-77777]
|0---------------1010101010-1010101010-77777-77777]
|0---------------1010101010-1010101010-77777-77777]

              P.M.______________
|--------------------------------]
|--------------------------------]
|--------------------------------]
|x0------5-------3-33333333333333]
|x0------5-------3-33333333333333]
|x0------5-------3-33333333333333]

"Let the walls haven their say..."
This part is played lightly in the backround palm muted, gradually getting louder. I
a volume pedal for this part. think in 3 (1-2-3-1-2-3-1-2-3-1-2-3--]
|------------------------------------------------------------------]
|------------------------------------------------------------------]
|------------------------------------------------------------------]
|000000000000]   6x
|000000000000]
|000000000000]

"You're conversations..."
|---------------------------------]
|---------------------------------]
|00-------------------------------]
|00-------------------------------]
|00-----033-------00----033-------]

The rythym changes when the lead guitar comes in...
|-----------------------------------]
|-----------------------------------]
|00---000---33---33-00---000---33---]
|00---000---33---33-00---000---33---]
|00---000---33---33-00---000---33---]

Ending
|-----------------]
|-----------------]
|-----------------]
|0---0---0---0---0]
|0---0---0---0---0]
|0---0---0---0---0]

____________________________________________________________________

GUITAR 2
-this is really the lead

Intro-again, kind of sincipated, which makes it hard to tab out efficiently. listen to
music and play the octaves correctly and you should have it.
|-------------------------------------------------------]
|4-5555--5555444-5555--5555557-4454--4444444-4444-444444]
|-------------------------------------------------------]
|2-3333--3333222-3333--3333335-2232--2222222-2222-222222]
|-------------------------------------------------------]
|-------------------------------------------------------]

|-----------------------------------------------------]
|4-5555--5555444-5555--5555557-4454--4444444--4--444--]
|-----------------------------------------------------]
|2-3333--3333222-3333--3333335-2232--2222222--2--222--]
|-----------------------------------------------------]
|-----------------------------------------------------]

Then nothing till...
Pre-chorus
|---0-----0-----2-----4--]
|424-4-424-4-424-4-424-4-]
|------------------------]
|------------------------]
|------------------------]
|------------------------]
-this one can be played one octave higher up, but i really think that is a piano, and
a guitar playing one octave higher... its up to you. if it was one octave higher, it
be

--------------------------------------14-----------16---]
16-14-16-17-16-16-14-16-17-16-16-14-16--16-16-14-16--16-]

or something like that


"Sometimes... it gets so hard to breath"              P.M.______________
|--------0----------0-----0-----2-----4---------------------------------]
|--------5-------424-4-424-4-424-4-424-4--------------------------------]
|--------4--------------------------------------------------------------]
|0-------0-------------------------------x0------5------3-33333333333333]
|0---------------------------------------x0------5------3-33333333333333]
|0---------------------------------------x0------5------3-33333333333333]


This is the only part of my tab I'm a bit skeptical about... if you think you have a
tab for this part, please email me or write a message to me.
"These fights with your arms..."                  1st ending
|--2-2-22-22-2222--2-2-22-22-2222----------------]0------222---]
|--0-0-00-00-0000--0-0-00-00-0000--4--xx4--------]0------000---]
|--4-4-44-44-4444--3-3-33-33-3333--2--xx2--------]1------444---]
|----------------------------------2--xx2--------]0------------]
|------------------------------------------------]-------------]
|------------------------------------------------]-------------]

2nd ending
|0000000-------------------]
|5554442---22-22-11-11-1111]
|1111111---11-11-11-11-1111]
|0000000-------------------]
|--------------------------]
|--------------------------]

Little solo here...
|--------------------------------------------------]
|--------------------------------------------------]
|--------------------------------------------------]
|10------10\2------2/9-------h10h12---3-3-3-3-30---]
|-------------------------------------3-3-3-3-30---]
|-------------------------------------3-3-3-3-30---]

More break on the verse...

and back to...

Pre-chorus
|---0-----0-----2-----4--]
|424-4-424-4-424-4-424-4-]
|------------------------]
|------------------------]
|------------------------]
|------------------------]
-Again, this one can be played one octave higher up, but i really think that is a piano,
not a guitar playing one octave higher... its up to you. if it was one octave higher,
would be

--------------------------------------14-----------16---]
16-14-16-17-16-16-14-16-17-16-16-14-16--16-16-14-16--16-]

or something like that


"Sometimes... it gets so hard to breath"              P.M.______________
|--------0----------0-----0-----2-----4---------------------------------]
|--------5-------424-4-424-4-424-4-424-4--------------------------------]
|--------4--------------------------------------------------------------]
|0-------0-------------------------------x0------5------3-33333333333333]
|0---------------------------------------x0------5------3-33333333333333]
|0---------------------------------------x0------5------3-33333333333333]

"Let the walls have their say..."
|------------------------]
|444444444444555555555555]
|------------------------]     3x
|------------------------]
|------------------------]
|------------------------]

Nothing at the beginning to the scremo part until...
|-------------------------------------------------------]
|--555555--55555---44444--44--555555--55555---444444--44]
|-------------------------------------------------------]
|-------------------------------------------------------]
|-------------------------------------------------------]
|-------------------------------------------------------]

Ending Riff
|----------------]
|----------------]
|442121--442121--]    5x
|------32------32]
|----------------]
|----------------]

On the last note of that riff at the very end add an open string on the c# (3rd string
the bottom). There may be a third guitar part, but if there is it only comes in a couple
in the whole song and i bet they just made it for mixing reasons, so its not worth it to
it out. Hope you like the tab, if you have any questions or suggestions regarding the
you can email me at tdickey4288@yahoo.com
              Thanks,
                    -Taylor-
Tap to rate this tab
 
# A B C D E F G H I J K L M N O P Q R S T U V W X Y Z