Song name
# A B C D E F G H I J K L M N O P Q R S T U V W X Y Z

Emery - Playing With Fire tab

För att göra det superenkla, enklare. Capo på 3e bandet!

|-----------3-3---------------------------3-3------------------------------|
|-5-5-5-5-5-----5-3-3-5-6-5-----5-5-5-5-5-----5-3-3-5-6-5------------------|
|---------------------------5-----------------------------5----------------|
|--------------------------------------------------------------------------|
|--------------------------------------------------------------------------|
|--------------------------------------------------------------------------|
She was barely 16 and too young - she belonged to a guy with a car
to be drinking wine-            the aggrasiva kind

|-5-5-5-5-5-7-7-5-3-3-----5-5-5-5-5-7-7-5-3-5-7-5-----------7-7-5-3-3--------|
|--------------------5------------------------------------------------5------|
|---------------------5--------------------------5-5-5-5-5-------------5-----|
|----------------------------------------------------------------------------|
|----------------------------------------------------------------------------|
|----------------------------------------------------------------------------|


---------------|-----------3-3-------3-------------(------------)-----------|
---3-5-3-5-----|-5-5-5-5-5-----5-3-3---5-|5-5-6-5---(-----5-5-3--)----------|
-5---------5---|-------------------------------5---(-5-5-------5)-----------|
---------------|--------------------------------5---------------------------|
---------------|------------------------------------------------------------|
---------------|------------------------------------------------------------|


-----------3-3-------3--------------------------------3-3--------------------|
-5-5-5-5-5-----5-3-3---5-|5-5-6-5--5-3---------3-3-5-----5-3--------3-5------|
---------------------------------5-------5-5-5----------------5-5-5----------|
-----------------------------------------------------------------------------|
-----------------------------------------------------------------------------|
-----------------------------------------------------------------------------|

Pallade inte mer, en början? Sjukt bra låt dock!
Dock lite enformig att tabba!

Over and out!
Tap to rate this tab
# A B C D E F G H I J K L M N O P Q R S T U V W X Y Z