Song name
# A B C D E F G H I J K L M N O P Q R S T U V W X Y Z

Emery - Thoughtlife Acoustic tab

Ok before I tab this, I have to thank shadowelite141, James, from youtube, who I heard 
saw play on his video..thats how I got the tab. this is probably 90% right.

this is in drop C# (drop d, half step down) and is in 6/8 timing..btw r= 1/8 
rest, t=12, T=10, and e=11

it took me a long time to write this down because I thought it was in 4/4, and I was 
it in 4/4 so I had to change it.

Verse

  D(2nd)  Em      Bm      Bm      D       Bm      E/G#?   E/G#?
D#-------|-------|-------|-------|-------|-------|-------|-------|
A#-------|-------|-3-3---|-3-3---|-3-3---|-3-3---|-------|-------|
F#-------|-------|-4-4---|-4-4---|-2-2---|-4-4---|-------|-------|
C#-7-7---|-2-2---|-4-4-x3|-4-4-x3|-0-0-x3|-4-4-x3|-9-9---|-9-9---|
G#-9-9-x3|-2-2-x3|-2-2---|-2-2---|-0-0---|-2-2---|-7-7-x3|-7-7-x3|
C#-0-0---|-2-2---|-------|-------|-0-0---|-------|-6-6---|-6-6---|


G       G
-------|-------|
-------|-------|
-------|-------|
-9-9---|-9-9---|   you play this twice for the first verse and play the last
-5-5-x3|-5-5-x3|   two chords again to finish off the verse
-5-5---|-5-5---|

Chorus:

------------|------------|------------|-------------|
------------|------------|------------|-------------|
-----r------|-----r------|-----r-----r|-----r-------|r
-9-7-r-----5|-9-7-r------|-9-9-r-9-9-r|-9-9-r-9-9---|r
-5-5---9-7-5|-5-5---9-7-5|-9-9---9-9--|-9-9---9-9---|
-5-5---5-5-5|-5-5---5-5-5|-9-9---9-9--|-9-9---9-9---|


------------|------------|------------|------------|
------------|------------|------------|------------|
-----r------|-----r------|-----r-----r|-----r-----r|  Play these two bars
-9-7-r-----5|-9-7-r------|-2-2-r-2-2-r|-2-2-r-2-2-r|  twice and then play
-5-5---9-7-5|-5-5---9-7-5|-2-2---2-2--|-2-2---2-2--|  verse again
-5-5---5-5-5|-5-5---5-5-5|-2-2---2-2--|-2-2---2-2--|

after the verse play the chorus, and then the two last chords of the verse
which I wrote here as E/G# and G. and then play this:

------------|------------|------------|------------|-------|-------|---------|
------------|------------|------------|------------|-------|-------|---------|
------------|------------|------------|------------|-7-7---|-7-7---|---------|
-2-2-2-2-2-2|-4-4-4-5-5-5|------------|------------|-9-9-x3|-9-9-x3|2-5-2----|
-1-1-1-1-1-1|-1-1-1-1-1-1|-9/t-9-9/t-9|-9/t-9-9/t-9|-9-9---|-9-9---|2-2-2----|x2
------------|------------|-0-0-0-0-0-0|-0-0-0-0-0-0|-9-9---|-9-9---|2-2-2----|

------------|------------|------------|------------|-------|-------|
------------|------------|------------|------------|-------|-------|
------------|------------|------------|-7-7-7-7-7-7|-7-7---|-7-7---|
-2-5-2-2-5-2|------------|------------|-9-9-9-9-9-9|-9-9-x3|-8-8-x3|
-2-2-2-2-2-2|-7-7-7-7-7-7|-9-9-9-T-T-T|-9-9-9-9-9-9|-9-9---|-9-9---|
-2-2-2-2-2-2|-7-7-7-7-7-7|-7-7-7-7-7-7|-9-9-9-9-9-9|-9-9---|-9-9---|

-------|------------|-----------|------------|-------|---|--|---|---|---|---|
-------|------------|-----------|------------|-------|---|--|---|---|---|---|
-7-7---|------------|-----------|------------|-------|---|--|---|---|---|---|
-8-8-x3|-2-5-2-4-4-4|2-2-2-2-2-2|-7-7-7-7-7-7|-7-7---|-9-|-e|-5-|-e-|-7-|-e-|
-9-9---|-2-2-2-2-2-2|2-2-2-2-2-2|-5-5-5-5-5-5|-5-5-x3|-5-|-7|-2-|-7-|-5-|-7-|
-9-9---|-2-2-2-2-2-2|2-2-2-2-2-2|-6-6-6-6-6-6|-6-6---|-5-|-7|-2-|-7-|-5-|-7-|


and then you play half the verse, except that in the end you hold and let ring the G. 
thats it hopefully this is right. tell me what you think.
Tap to rate this tab
# A B C D E F G H I J K L M N O P Q R S T U V W X Y Z