Song name
# A B C D E F G H I J K L M N O P Q R S T U V W X Y Z

Emery - Butchers Mouth tab

Tabbed by:trey hopkins the guy who does oceana tabs.
Email:

Tuning:drop c#
                              intro..

e|-----------------------------------------------------------------------------|
B|-----------------------------------------------------------------------------|
G|-----------------------------------------------------------------------------|
D|-----------------------------------------------------------------------------|
A|----5----5-----3-----3------1-----1------10------10--------------------------|
E|--5----5----3-----3------1-----1-----10------10------------------------------|
                           pre chorus.
e|-----------------------------------------------------------------------------|
B|-----------------------------------------------------------------------------|
G|-----------------------------------------------------------------------------|
D|-----------------------------------------------------------------------------|
A|---5-5---5-5-5-5---3-3--3-3-3-3---1-1--1-1-1-1---10-10--10-10-10-10----------|
E|---5-5---5-5-5-5---3-3--3-3-3-3---1-1--1-1-1-1---10-10--10-10-10-10----------|
                                chorus.
e|-----------------------------------------------------------------------------|
B|-----------------------------------------------------------------------------|
G|-----------------------------------------------------------------------------|
D|---5-5-5-5--3-3-3-3--8-8-8--3-3-3--10-10-10----------------------------------|
A|---5-5-5-5--3-3-3-3--8-8-8--3-3-3--10-10-10---------8--0-0-0--8--0-0-0-------|
E|---5-5-5-5--3-3-3-3--8-8-8--3-3-3--10-10-10---------8--0-0-0--8--0-0-0-------|

e|-----------------------------------------------------------------------------|
B|-----------------------------------------------------------------------------|
G|-----------------------------------------------------------------------------|
D|----14--14--14--15--10--10---------------------------------------------------|
A|----12--12--12--13--12--12---------------------------------------------------|
E|-----------------------------------------------------------------------------|

e|-----------------------------------------------------------------------------|
B|-----------------------------------------------------------------------------|
G|-----------------------------------------------------------------------------|
D|-----------------------------------------------------------------------------|
A|---5-5---5-5-5-5---3-3--3-3-3-3---1-1--1-1-1-1---10-10--10-10-10-10----------|
E|---5-5---5-5-5-5---3-3--3-3-3-3---1-1--1-1-1-1---10-10--10-10-10-10----------|
Tap to rate this tab
 
# A B C D E F G H I J K L M N O P Q R S T U V W X Y Z