Song name
# A B C D E F G H I J K L M N O P Q R S T U V W X Y Z

Emery - Butchers Mouth tab

-----------------------------------------------------------------------------
			    Butcher's Mouth - Emery
-----------------------------------------------------------------------------
Tabbed by: Blake
Email: blakeestes@ymail.com

Tuning: C#-G#-C#-F#-A#-D#

Intro: (Play x2)
|---------------------------------------------------------------------------|
|---------------------------------------------------------------------------|
|---------------------------------------------------------------------------|
|----------------------5-5--------------------------------------------------|
|--5--5---5--5---3-3--------------------------------------------------------|
|-5--5-5-3--3-3-1-1-1-3-3-3-------------------------------------------------|

Verse Pt.1: (Play x5)
|---------------------------------------------------------------------------|
|---------------------------------------------------------------------------|
|---------------------------------------------------------------------------|
|-55-555555333-333333111-11111100-000000------------------------------------|
|-55-555555333-333333111-11111100-000000------------------------------------|
|-55-555555333-333333111-11111100-000000------------------------------------|
pm.. ......... ......... ........ ......

Verse Pt.2: (Play x1)
|---------------------------------------------------------------------------|
|---------------------------------------------------------------------------|
|---------------------------------------------------------------------------|
|-55-555555333-333333111-1111115~-------------------------------------------|
|-55-555555333-333333111-111111x--------------------------------------------|
|-55-555555333-333333111-1111113~-------------------------------------------|
pm.. ......... ......... ......

Chorus Pt.1: (Play x2)
|---------------------------------------------------------------------------|
|---------------------------------------------------------------------------|
|-7-7-7-7/8-8-8-8/7-7-7-7/8/5-----------------------------------------------|
|-x-x-x-x-x-x-x-x-x-x-x-x-x-x-----------------------------------------------|
|-5-5-5-5/6-6-6-6/5-5-5-5/6/3-----------------------------------------------|
|---------------------------------------------------------------------------|

Chorus Pt.2: (Play x1)
|---------------------------------------------------------------------------|
|---------------------------------------------------------------------------|
|---------------------------------------------------------------------------|
|---00-0---00-0---00-0---00-------------------------------------------------|
|---00-0---00-0---00-0---00-------------------------------------------------|
|-8-00-0-8-00-0-8-00-0-8-00-------------------------------------------------|
pm  .. .   .. .   .. .   ..

Chorus Pt.3: (Play x1)
|---------------------------------------------------------------------------|
|---------------------------------------------------------------------------|
|---------------------------------------------------------------------------|
|-14-14-14-14/15-12-7-7-7-7/8-5---------------------------------------------|
|-x--x--x--x--x--x--x-x-x-x-x-x---------------------------------------------|
|-12-12-12-12/13-10-5-5-5-5/6-3---------------------------------------------|

Verse 2 Pt.1: (Play x1)
|---------------------------------------------------------------------------|
|---------------------------------------------------------------------------|
|------------------------------55-55~---------------------------------------|
|-55-555555333-333333111-111111xx-xx----------------------------------------|
|-55-555555333-333333111-11111133-33~---------------------------------------|
|-55-555555333-333333111-111111---------------------------------------------|
pm.. ......... ......... ......

Verse 2 Pt.2: (Play x4)
|---------------------------------------------------------------------------|
|---------------------------------------------------------------------------|
|---------------------------------------------------------------------------|
|-55-555555333-333333111-11111100-000000------------------------------------|
|-55-555555333-333333111-11111100-000000------------------------------------|
|-55-555555333-333333111-11111100-000000------------------------------------|
pm.. ......... ......... ........ ......

Verse 2 Pt.3: (Play x1)
|---------------------------------------------------------------------------|
|---------------------------------------------------------------------------|
|---------------------------------------------------------------------------|
|-55-555555333-333333111-1111115~-------------------------------------------|
|-55-555555333-333333111-111111x--------------------------------------------|
|-55-555555333-333333111-1111113~-------------------------------------------|
pm.. ......... ......... ......

Chorus 2 Pt.1: (Play x2)
|---------------------------------------------------------------------------|
|---------------------------------------------------------------------------|
|-7-7-7-7/8-8-8-8/7-7-7-7/8/5-----------------------------------------------|
|-x-x-x-x-x-x-x-x-x-x-x-x-x-x-----------------------------------------------|
|-5-5-5-5/6-6-6-6/5-5-5-5/6/3-----------------------------------------------|
|---------------------------------------------------------------------------|

Chorus 2 Pt.2: (Play x1)
|---------------------------------------------------------------------------|
|---------------------------------------------------------------------------|
|---------------------------------------------------------------------------|
|---00-0---00-0---00-0---00-------------------------------------------------|
|---00-0---00-0---00-0---00-------------------------------------------------|
|-8-00-0-8-00-0-8-00-0-8-00-------------------------------------------------|
pm  .. .   .. .   .. .   ..

Chorus 2 Pt.3: (Play x1)
|---------------------------------------------------------------------------|
|---------------------------------------------------------------------------|
|-14-14-14-14/15-12-7-7-7-7/8-5---------------------------------------------|
|-x--x--x--x--x--x--x-x-x-x-x-x-3xxxx3xxxx3xxxx3----------------------------|
|-12-12-12-12/13-10-5-5-5-5/6-3-3xxxx3xxxx3xxxx3----------------------------|
|-------------------------------3xxxx3xxxx3xxxx3----------------------------|

Bridge Pt.1 [Guitar 1] (I haven't figured out all he plays): (Play x1)
|---------------------------------------------------------------------------|
|-10-10-10-10-10-10-10-10-10-10-10-10-10-10-10-10-8-------------------------|
|-13b14-14-14-14-14-14-14-14-14-14-14-14-14-14-14---10----------------------|
|---------------------------------------------------------------------------|
|---------------------------------------------------------------------------|
|---------------------------------------------------------------------------|

Bridge Pt.1 [Guitar 2] (In the background): (Play until he stops screaming)
|---------------------------------------------------------------------------|
|---------------------------------------------------------------------------|
|---------------------------------------------------------------------------|
|---00-0---00-0---00-0---00-------------------------------------------------|
|---00-0---00-0---00-0---00-------------------------------------------------|
|-8-00-0-8-00-0-8-00-0-8-00-------------------------------------------------|
pm  .. .   .. .   .. .   ..

Bridge Pt.2 (Comes in when drum beat changes, sounds like just bass plays before 
play with slight pm):
(Play until drums stop)
|---------------------------------------------------------------------------|
|---------------------------------------------------------------------------|
|---------------------------------------------------------------------------|
|---------------------------------------------------------------------------|
|---------------------------------------------------------------------------|
|-5-5-5-3-5-5-5-5-5-3-5-5-5-5-5-3-5-5---------------------------------------|

Verse Pt.3: (Play x1)
|---------------------------------------------------------------------------|
|---------------------------------------------------------------------------|
|---------------------------------------------------------------------------|
|-55-555555333-333333111-1111110--------------------------------------------|
|-55-555555333-333333111-1111110--------------------------------------------|
|-55-555555333-333333111-1111110--------------------------------------------|
pm.. ......... ......... .......


Chorus 3 Pt.1: (Play x2)
|---------------------------------------------------------------------------|
|---------------------------------------------------------------------------|
|-7-7---7/10-10---10-10-10-10-10/12-5---------------------------------------|
|-x-x---x-x--x-----x--x--x--x--x--x-x---------------------------------------|
|-5-5---5/8--8-----8--8--8--8--8/10-3---------------------------------------|
|---------------------------------------------------------------------------|

Chorus 3 Pt.2: (Play x1)
|---------------------------------------------------------------------------|
|---------------------------------------------------------------------------|
|---------------------------------------------------------------------------|
|---00-0---00-0---00-0---00-------------------------------------------------|
|---00-0---00-0---00-0---00-------------------------------------------------|
|-8-00-0-8-00-0-8-00-0-8-00-------------------------------------------------|
pm  .. .   .. .   .. .   ..

Chorus 3 Pt.3: (Play x1)
|---------------------------------------------------------------------------|
|---------------------------------------------------------------------------|
|---------------------------------------------------------------------------|
|-14-14-14-14/15-12-7-7-7-7/8-5---------------------------------------------|
|-x--x--x--x--x--x--x-x-x-x-x-x-3xxxx3xxxx3xxxx5\---------------------------|
|-12-12-12-12/13-10-5-5-5-5/6-3-3xxxx3xxxx3xxxx5\---------------------------|
|-------------------------------3xxxx3xxxx3xxxx5\---------------------------|

Notes: I know the bridge isn't exactly the best.
But the guitars are very hard to hear over the piano and all the other electronic noises 
on.
If anyone has the part down better, feel free to e-mail me with corrections.

| /  slide up
| \  slide down
| h  hammer-on
| p  pull-off
| ~  vibrato
| +  harmonic
| x  Mute note
=============================================================================
Tap to rate this tab
 
# A B C D E F G H I J K L M N O P Q R S T U V W X Y Z