Song name
# A B C D E F G H I J K L M N O P Q R S T U V W X Y Z

Emery - Disguising Mistakes And Goodbyes tab

Band:emery
song:disguising mistakes and goodbyes(song #3)

This song is played standered tuning half step down. I haven't figured out the whole
song but i wanted to get the first part cause its really fun to play.

* Palm mute
Eb|---------------------------------------|
Bb|---------------------------------------|
Gb|-------------------------------7-------|
Db|-----------5p4-4-5p4-4-5p-4-------4----|
Ab|---------------------------------------|
Eb|---0-0-0-0-----------------------------|


E |---------------------------------------|
B |---------------------------------------|
G |----------------------------------9----|
D |-----------5p4-4-5p4-4-5p-4-------7----|
A |---------------------------------------|
E |---0-0-0-0-----------------------------|

Play this twice, then when the drums pick up play
this set twice again and dont palm mute 

Eb |-------------------------------------------------------------------|
Bb |-------------------------------------------------------------------|
Gb |------------------------------7--------------------------------7---|
Db |-----------5p4-4-5p4-4-5p-4-----4----------5p4-4-5p-4-4-5p-4-----4-|
Ab |-------------------------------------------------------------------|
Eb |---0-0-0-0--------------------------0-0-0-0------------------------|

Eb |-------------------------------------------------------------------|
Bb |-------------------------------------------------------------------|
Gb |-------------------------------7-------------------------------7---|
Db |------------5p4-4-5p4-4-5p-4-----4----------5p4-4-5p4-4-5p-4-----4-|
Ab |---5-5-5-5--------------------------5-5-5-5------------------------|
Eb |-------------------------------------------------------------------|

Eb |-------------------------------------------------------------------|
Bb |-------------------------------------------------------------------|
Gb |-----------------------------7------------------------------7------|
Db |-----------5p4-4-5p4-4-5p-4----4----------5p4-4-5p4-4-5p-4-----4---| 
Ab |-------------------------------------------------------------------|
Eb |---3-3-3-3------------------------3-3-3-3--------------------------|


Eb |-------------------------------------------------------------------|
Bb |-------------------------------------------------------------------|
Gb |-----------------------------7------------------------------7------|
Db |-----------5p4-4-5p4-4-5p-4----4----------5p4-4-5p4-4-5p-4-----4---| 
Ab |---3-3-3-3------------------------3-3-3-3--------------------------|
Eb |-------------------------------------------------------------------|

this is as far as i got but feel free to Add for the next part. listen to the song and
you will pick up the pattern pretty fast. enjoy.
Tap to rate this tab
# A B C D E F G H I J K L M N O P Q R S T U V W X Y Z