Song name
# A B C D E F G H I J K L M N O P Q R S T U V W X Y Z

Emery - As Your Voice Fades Acoustic tab

Artist: Emery
Album: The Question (Tower Records Promo)
Song: As Your Voice Fades (Acoustic)
Tabbed by: Andrew Kikuchi im_a_loner_dottie2113@yahoo.com

Hey hey emery fans! This is the second in my series of emery tabs, this is one
of my fav emery songs, and the acoustic version is so much more better than album version.
If you can tab this by yourself, its a lot of fun and its not that hard, have fun!
As with most emery songs tune your guitar down a half step, instead of eadgbe
It should be tuned to d#g#c#f#a#d#
 Somebody……                    you’ve died……..
E----------------------0------------------------------------------0-----|
B-8--5----0-0---0-0----0----8-5----0-0---1-0---0-0----------0-----0-----|
G-9--5-----0-0---0-0---0----9-5-----0-0---2-2---0-0--2-2----0-----0-----|
D-9--5---5-----2-----2-2----9-5---2-----2-----2-----2-2-2-2-2---2-2-----|
A-7--3-7------3-----0--0----7-3--3-----0-----3-----0-----3--3--0--0-----|
E-----------------------------------------------------------------------|
                   Why did you die? Here with me..
E----------------------/-0----------------------------------------|
B----------------------/-0-7-5--------5-7-------------------------|
G-9//12----11-9-7--5-7-/-0-7-5--------5-7-12-11-14-12-------------|
D-x--x-----x--x-x--x-x-/-2-7-5--------5-7--x-x--x--x--------------|
A-7//10----9--7-5--3-5-/-2-5-3--------3-5-10-9--12-10-------------|
E----------------------/-0----------------------------------------|
alternative chords for lead for the muted chords above
E--------------------------------------------------------|
B-8-7-10-8-----------------------------------------------|
G-x-x-x--x-----------------------------------------------|
D-5-4-7--5-----------------------------------------------|
A-7-5-9--7-----------------------------------------------|
E--------------------------------------------------------|
The brightness………    until………     chords for bridge
E-------------------/-0-2---------0-2-0---------------------------|
B-------------------/-1-3---------0-3-1---------------------------|
G-------------------/-0-2---------0-2-0---------------------------|
D-5---5---5---5-----/-2-0---------2-0-2---------------------------|
A-3-3-3-3-7-7-7-7---/-3-0---------2-0-3---------------------------|
E---0---0---0---0---/-------------0-0-----------------------------|
lead for bridge
E-2--3---0------0---------2------3-----0------0-------------------|
B-3--3-3--3---3--3---------3------3--3--3---3--3------------------|
G-0--2-4---4--4---4------0--0---2--2-4---4--4---4-----------------|
D-2--0-2----2-2----2----2------0-----2----2-2----2----------------|
A------3------3----------------------3------3---------------------|
E-----------------------------------------------------------------|

E---------------0-------0-0----0--------------------------|
B-------------0----------8-10-----------------------------|
G----------------7---7-------9--7-------------------------|
D------4-5--7-----0--------------7-4----------------------|
A-5//7-------------9--------------------------------------|
E---------------------------------------------------------|

E------2p0----------------------------------------------------------|
B-----3---3-----------3------5------7------8-8----------------------|
G-2//4-----4----0-2-0--0--------------------------------------------|
D------------------------2//4—--4//7---7//9-9-----------------------|
A-------------------------------------------------------------------|
E-------------------------------------------------------------------|
your words!              the chains.....(palm muted for most of the ending)
E-0------------------------0---------------------------------------------|
B-0--------7---------5-----0-5-7-----------------------------------------|
G-0--------7---------5-----0-5-7-----------------------------------------|
D-2--------7---------5-----2-5-7-----------------------------------------|
A-2--------5---------3-----2-3-5-----------------------------------------|
E-0--------5---------3-----0-3-5-----------------------------------------|
Ending muted chords and alt. chords
E--------------/-------------------------------------------------|
B--------------/--8-7-10-7---------------------------------------|
G-12-11-14-11--/--x-x-x--x---------------------------------------|
D-x--x--x--x---/--5-4-7--4---------------------------------------|
A-10-9--12-9---/--7-5-9--5---------------------------------------|
E--------------/-------------------------------------------------|

So that’s it guys! Hope u had fun, fun song, great band. srry for the tightly
spaced tab, this im new to tabbing.  plz feedback is greatly appreciated!!!
My name is Andrew, peace and namunae!
Tap to rate this tab
 
# A B C D E F G H I J K L M N O P Q R S T U V W X Y Z